  0
SECTION
  2
HEADER
  9
$ACADVER
  1
AC1009
  9
$DWGCODEPAGE
  3
dos932
  9
$INSBASE
 10
0.0
 20
0.0
 30
0.0
  9
$EXTMIN
 10
0.0
 20
0.0
 30
0.0
  9
$EXTMAX
 10
297.0
 20
210.0
 30
0.0
  9
$LIMMIN
 10
0.0
 20
0.0
  9
$LIMMAX
 10
0.0
 20
0.0
  9
$ORTHOMODE
 70
     0
  9
$REGENMODE
 70
     1
  9
$FILLMODE
 70
     1
  9
$QTEXTMODE
 70
     0
  9
$MIRRTEXT
 70
     1
  9
$DRAGMODE
 70
     2
  9
$LTSCALE
 40
1.0
  9
$OSMODE
 70
    37
  9
$ATTMODE
 70
     1
  9
$TEXTSIZE
 40
3.5
  9
$TRACEWID
 40
1.0
  9
$TEXTSTYLE
  7
STANDARD
  9
$CLAYER
  8
0
  9
$CELTYPE
  6
BYLAYER
  9
$CECOLOR
 62
   256
  9
$DIMSCALE
 40
1.0
  9
$DIMASZ
 40
6.0
  9
$DIMEXO
 40
1.0
  9
$DIMDLI
 40
3.75
  9
$DIMRND
 40
0.0
  9
$DIMDLE
 40
0.0
  9
$DIMEXE
 40
1.0
  9
$DIMTP
 40
0.0
  9
$DIMTM
 40
0.0
  9
$DIMTXT
 40
3.5
  9
$DIMCEN
 40
2.5
  9
$DIMTSZ
 40
0.0
  9
$DIMTOL
 70
     0
  9
$DIMLIM
 70
     0
  9
$DIMTIH
 70
     1
  9
$DIMTOH
 70
     1
  9
$DIMSE1
 70
     0
  9
$DIMSE2
 70
     0
  9
$DIMTAD
 70
     1
  9
$DIMZIN
 70
     0
  9
$DIMBLK
  1

  9
$DIMASO
 70
     1
  9
$DIMSHO
 70
     1
  9
$DIMPOST
  1

  9
$DIMAPOST
  1

  9
$DIMALT
 70
     0
  9
$DIMALTD
 70
     3
  9
$DIMALTF
 40
0.0393700787
  9
$DIMLFAC
 40
1.0
  9
$DIMTOFL
 70
     1
  9
$DIMTVP
 40
0.0
  9
$DIMTIX
 70
     0
  9
$DIMSOXD
 70
     0
  9
$DIMSAH
 70
     0
  9
$DIMBLK1
  1

  9
$DIMBLK2
  1

  9
$DIMSTYLE
  2
ISO-25
  9
$DIMCLRD
 70
     0
  9
$DIMCLRE
 70
     0
  9
$DIMCLRT
 70
     0
  9
$DIMTFAC
 40
1.0
  9
$DIMGAP
 40
1.524
  9
$LUNITS
 70
     2
  9
$LUPREC
 70
     2
  9
$SKETCHINC
 40
1.0
  9
$FILLETRAD
 40
10.0
  9
$AUNITS
 70
     0
  9
$AUPREC
 70
     0
  9
$MENU
  1
.
  9
$ELEVATION
 40
0.0
  9
$PELEVATION
 40
0.0
  9
$THICKNESS
 40
0.0
  9
$LIMCHECK
 70
     0
  9
$CHAMFERA
 40
10.0
  9
$CHAMFERB
 40
10.0
  9
$SKPOLY
 70
     0
  9
$TDCREATE
 40
2453885.727289201
  9
$TDUPDATE
 40
2453885.727289213
  9
$TDINDWG
 40
0.0000000116
  9
$TDUSRTIMER
 40
0.0000000116
  9
$USRTIMER
 70
     1
  9
$ANGBASE
 50
0.0
  9
$ANGDIR
 70
     0
  9
$PDMODE
 70
     0
  9
$PDSIZE
 40
-1.0
  9
$PLINEWID
 40
0.0
  9
$COORDS
 70
     1
  9
$SPLFRAME
 70
     0
  9
$SPLINETYPE
 70
     6
  9
$SPLINESEGS
 70
     8
  9
$ATTDIA
 70
     0
  9
$ATTREQ
 70
     1
  9
$HANDLING
 70
     1
  9
$HANDSEED
  5
431
  9
$SURFTAB1
 70
     6
  9
$SURFTAB2
 70
     6
  9
$SURFTYPE
 70
     6
  9
$SURFU
 70
     6
  9
$SURFV
 70
     6
  9
$UCSNAME
  2

  9
$UCSORG
 10
0.0
 20
0.0
 30
0.0
  9
$UCSXDIR
 10
1.0
 20
0.0
 30
0.0
  9
$UCSYDIR
 10
0.0
 20
1.0
 30
0.0
  9
$PUCSNAME
  2

  9
$PUCSORG
 10
0.0
 20
0.0
 30
0.0
  9
$PUCSXDIR
 10
1.0
 20
0.0
 30
0.0
  9
$PUCSYDIR
 10
0.0
 20
1.0
 30
0.0
  9
$USERI1
 70
     0
  9
$USERI2
 70
     0
  9
$USERI3
 70
     0
  9
$USERI4
 70
     0
  9
$USERI5
 70
     0
  9
$USERR1
 40
0.0
  9
$USERR2
 40
0.0
  9
$USERR3
 40
0.0
  9
$USERR4
 40
0.0
  9
$USERR5
 40
0.0
  9
$WORLDVIEW
 70
     1
  9
$SHADEDGE
 70
     3
  9
$SHADEDIF
 70
    70
  9
$TILEMODE
 70
     1
  9
$MAXACTVP
 70
    64
  9
$PLIMCHECK
 70
     0
  9
$PEXTMIN
 10
1.000000000000000E+20
 20
1.000000000000000E+20
 30
1.000000000000000E+20
  9
$PEXTMAX
 10
-1.000000000000000E+20
 20
-1.000000000000000E+20
 30
-1.000000000000000E+20
  9
$PLIMMIN
 10
0.0
 20
0.0
  9
$PLIMMAX
 10
420.0
 20
297.0
  9
$UNITMODE
 70
     0
  9
$VISRETAIN
 70
     1
  9
$PLINEGEN
 70
     0
  9
$PSLTSCALE
 70
     1
  0
ENDSEC
  0
SECTION
  2
TABLES
  0
TABLE
  2
VPORT
 70
     1
  0
VPORT
  2
*ACTIVE
 70
     0
 10
0.0
 20
0.0
 11
1.0
 21
1.0
 12
148.5
 22
105.0
 13
0.0
 23
0.0
 14
10.0
 24
10.0
 15
10.0
 25
10.0
 16
0.0
 26
0.0
 36
1.0
 17
0.0
 27
0.0
 37
0.0
 40
210.0
 41
2.7903474902
 42
50.0
 43
0.0
 44
0.0
 50
0.0
 51
0.0
 71
     0
 72
  2000
 73
     1
 74
     3
 75
     0
 76
     0
 77
     0
 78
     0
  0
ENDTAB
  0
TABLE
  2
LTYPE
 70
     6
  0
LTYPE
  2
CONTINUOUS
 70
     0
  3
Solid line
 72
    65
 73
     0
 40
0.0
  0
LTYPE
  2
HIDDEN
 70
     0
  3
Hidden __ __ __ __ __ __ __ __ __ __ __ __ __ __
 72
    65
 73
     2
 40
1.905
 49
1.27
 49
-0.635
  0
LTYPE
  2
PHANTOM
 70
     0
  3
Phantom ______  __  __  ______  __  __  ______
 72
    65
 73
     6
 40
12.7
 49
6.35
 49
-1.27
 49
1.27
 49
-1.27
 49
1.27
 49
-1.27
  0
LTYPE
  2
CENTER
 70
     0
  3
Center ____ _ ____ _ ____ _ ____ _ ____ _ ____
 72
    65
 73
     4
 40
10.16
 49
6.35
 49
-1.27
 49
1.27
 49
-1.27
  0
LTYPE
  2
CENTERX2
 70
     0
  3
Center (2x) ________  __  ________  __  _____
 72
    65
 73
     4
 40
20.32
 49
12.7
 49
-2.54
 49
2.54
 49
-2.54
  0
LTYPE
  2
DOT2
 70
     0
  3
Dot (.5x) ........................................
 72
    65
 73
     2
 40
0.635
 49
0.0
 49
-0.635
  0
ENDTAB
  0
TABLE
  2
LAYER
 70
     1
  0
LAYER
  2
0
 70
     0
 62
     7
  6
CONTINUOUS
  0
ENDTAB
  0
TABLE
  2
STYLE
 70
     1
  0
STYLE
  2
STANDARD
 70
     0
 40
0.0
 41
1.0
 50
0.0
 71
     0
 42
2.5
  3
txt
  4
bigfont
  0
ENDTAB
  0
TABLE
  2
VIEW
 70
     0
  0
ENDTAB
  0
TABLE
  2
UCS
 70
     0
  0
ENDTAB
  0
TABLE
  2
APPID
 70
     1
  0
APPID
  2
ACAD
 70
     0
  0
ENDTAB
  0
TABLE
  2
DIMSTYLE
 70
     1
  0
DIMSTYLE
  2
ISO-25
 70
     0
  3

  4

  5

  6

  7

 40
1.0
 41
2.5
 42
0.625
 43
3.75
 44
1.25
 45
0.0
 46
0.0
 47
0.0
 48
0.0
140
2.5
141
2.5
142
0.0
143
0.0393700787
144
1.0
145
0.0
146
1.0
147
0.625
 71
     0
 72
     0
 73
     0
 74
     0
 75
     0
 76
     0
 77
     1
 78
     8
170
     0
171
     3
172
     1
173
     0
174
     0
175
     0
176
     0
177
     0
178
     0
  0
ENDTAB
  0
ENDSEC
  0
SECTION
  2
BLOCKS
  0
BLOCK
  8
0
  2
$MODEL_SPACE
 70
     0
 10
0.0
 20
0.0
 30
0.0
  3
$MODEL_SPACE
  1

  0
ENDBLK
  5
21
  8
0
  0
BLOCK
 67
     1
  8
0
  2
$PAPER_SPACE
 70
     0
 10
0.0
 20
0.0
 30
0.0
  3
$PAPER_SPACE
  1

  0
ENDBLK
  5
1D
 67
     1
  8
0
  0
ENDSEC
  0
SECTION
  2
ENTITIES
  0
ARC
  5
2F
  8
0
  6
CONTINUOUS
 62
     7
 10
56.2600585138
 20
45.8110570514
 30
0.0
 40
0.7985788432971381
 50
236.9735571292
 51
303.6862710604
  0
LINE
  5
30
  8
0
  6
CONTINUOUS
 62
     7
 10
56.7087855651
 20
45.1369746245
 30
0.0
 11
59.418649794
 21
46.7013446901
 31
0.0
  0
LINE
  5
31
  8
0
  6
CONTINUOUS
 62
     7
 10
54.4105986899
 20
45.9579213926
 30
0.0
 11
55.8250805116
 21
45.1413586172
 31
0.0
  0
ARC
  5
32
  8
0
  6
CONTINUOUS
 62
     7
 10
54.8467358327
 20
46.7716303468
 30
0.0
 40
0.9232214628149027
 50
121.3730805592
 51
241.8092854717
  0
LINE
  5
33
  8
0
  6
CONTINUOUS
 62
     7
 10
57.0711787478
 20
49.134377345
 30
0.0
 11
54.3598909875
 21
47.5691829818
 31
0.0
  0
LINE
  5
34
  8
0
  6
CONTINUOUS
 62
     7
 10
59.6014901838
 20
46.9993410772
 30
0.0
 11
75.5987792002
 21
56.2343794531
 31
0.0
  0
LINE
  5
35
  8
0
  6
CONTINUOUS
 62
     7
 10
86.45625155889999
 20
62.5022648301
 30
0.0
 11
146.3094573189
 21
97.0547850442
 31
0.0
  0
LINE
  5
36
  8
0
  6
CONTINUOUS
 62
     7
 10
157.1669296776
 20
103.3226704212
 30
0.0
 11
217.0201354375
 21
137.8751906353
 31
0.0
  0
LINE
  5
37
  8
0
  6
CONTINUOUS
 62
     7
 10
227.8776077962
 20
144.1430760123
 30
0.0
 11
245.5401089454
 21
154.3394208904
 31
0.0
  0
LINE
  5
38
  8
0
  6
CONTINUOUS
 62
     7
 10
243.3592910213
 20
156.4837705912
 30
0.0
 11
228.655261734
 21
147.9953151655
 31
0.0
  0
LINE
  5
39
  8
0
  6
CONTINUOUS
 62
     7
 10
214.8416439122
 20
140.0208833376
 30
0.0
 11
157.9445836153
 21
107.1749095744
 31
0.0
  0
LINE
  5
3A
  8
0
  6
CONTINUOUS
 62
     7
 10
144.1309657936
 20
99.2004777464
 30
0.0
 11
87.2339054966
 21
66.3545039832
 31
0.0
  0
LINE
  5
3B
  8
0
  6
CONTINUOUS
 62
     7
 10
73.4202876749
 20
58.3800721553
 30
0.0
 11
57.4206722597
 21
49.143690778
 31
0.0
  0
ARC
  5
3C
  8
0
  6
CONTINUOUS
 62
     7
 10
79.3402665763
 20
72.49376001269999
 30
0.0
 40
10.00000000000003
 50
287.7251856905
 51
252.2748143095
  0
LINE
  5
3D
  8
0
  6
CONTINUOUS
 62
     7
 10
80.9253518276
 20
62.6304888121
 30
0.0
 11
81.25732988350001
 21
62.6881752143
 31
0.0
  0
ARC
  5
3E
  8
0
  6
CONTINUOUS
 62
     7
 10
220.7616228136
 20
154.1345711949
 30
0.0
 40
9.999999999999972
 50
287.7251856905
 51
252.2748143095
  0
LINE
  5
3F
  8
0
  6
CONTINUOUS
 62
     7
 10
222.3467080649
 20
144.2712999943
 30
0.0
 11
222.6786861208
 21
144.3289863966
 31
0.0
  0
ARC
  5
40
  8
0
  6
CONTINUOUS
 62
     7
 10
150.0509446949
 20
113.3141656038
 30
0.0
 40
9.999999999999977
 50
287.7251856905
 51
252.2748143095
  0
LINE
  5
41
  8
0
  6
CONTINUOUS
 62
     7
 10
151.6360299463
 20
103.4508944032
 30
0.0
 11
151.9680080022
 21
103.5085808055
 31
0.0
  0
LINE
  5
42
  8
0
  6
CONTINUOUS
 62
     7
 10
226.1782894803
 20
145.6969828055
 30
0.0
 11
226.1782894803
 21
145.7286374442
 31
0.0
  0
LINE
  5
43
  8
0
  6
CONTINUOUS
 62
     7
 10
215.3449561469
 20
145.7286374442
 30
0.0
 11
215.3449561469
 21
145.6969828055
 31
0.0
  0
LINE
  5
44
  8
0
  6
CONTINUOUS
 62
     7
 10
226.4278579751
 20
143.2877301017
 30
0.0
 11
226.3813146798
 21
145.4648406638
 31
0.0
  0
LINE
  5
45
  8
0
  6
CONTINUOUS
 62
     7
 10
215.1419309474
 20
145.4648406638
 30
0.0
 11
215.0953876521
 21
143.2877301017
 31
0.0
  0
LINE
  5
46
  8
0
  6
CONTINUOUS
 62
     7
 10
215.6684870396
 20
139.7353272585
 30
0.0
 11
215.6716437453
 21
139.7298596838
 31
0.0
  0
LINE
  5
47
  8
0
  6
CONTINUOUS
 62
     7
 10
213.6452086786
 20
142.2132301582
 30
0.0
 11
213.6452086786
 21
140.7978927509
 31
0.0
  0
LINE
  5
48
  8
0
  6
CONTINUOUS
 62
     7
 10
214.4579057672
 20
143.2343105154
 30
0.0
 11
214.3005253942
 21
143.1434567599
 31
0.0
  0
LINE
  5
49
  8
0
  6
CONTINUOUS
 62
     7
 10
227.8780369486
 20
142.7028450118
 30
0.0
 11
227.8780369486
 21
144.1181824191
 31
0.0
  0
LINE
  5
4A
  8
0
  6
CONTINUOUS
 62
     7
 10
227.222720233
 20
145.0484090209
 30
0.0
 11
226.378453011
 21
145.5357941138
 31
0.0
  0
LINE
  5
4B
  8
0
  6
CONTINUOUS
 62
     7
 10
155.4676113616
 20
104.8765772143
 30
0.0
 11
155.4676113616
 21
104.908231853
 31
0.0
  0
LINE
  5
4C
  8
0
  6
CONTINUOUS
 62
     7
 10
144.6342780283
 20
104.908231853
 30
0.0
 11
144.6342780283
 21
104.8765772143
 31
0.0
  0
LINE
  5
4D
  8
0
  6
CONTINUOUS
 62
     7
 10
155.7171798565
 20
102.4673245106
 30
0.0
 11
155.6706365611
 21
104.6444350727
 31
0.0
  0
LINE
  5
4E
  8
0
  6
CONTINUOUS
 62
     7
 10
144.4312528288
 20
104.6444350727
 30
0.0
 11
144.3847095334
 21
102.4673245106
 31
0.0
  0
LINE
  5
4F
  8
0
  6
CONTINUOUS
 62
     7
 10
144.957808921
 20
98.91492166730001
 30
0.0
 11
144.9609656267
 21
98.9094540927
 31
0.0
  0
LINE
  5
50
  8
0
  6
CONTINUOUS
 62
     7
 10
142.93453056
 20
101.392824567
 30
0.0
 11
142.93453056
 21
99.9774871597
 31
0.0
  0
LINE
  5
51
  8
0
  6
CONTINUOUS
 62
     7
 10
143.7472276486
 20
102.4139049243
 30
0.0
 11
143.5898472756
 21
102.3230511688
 31
0.0
  0
LINE
  5
52
  8
0
  6
CONTINUOUS
 62
     7
 10
157.1673588299
 20
101.8824394207
 30
0.0
 11
157.1673588299
 21
103.2977768279
 31
0.0
  0
LINE
  5
53
  8
0
  6
CONTINUOUS
 62
     7
 10
156.5120421143
 20
104.2280034297
 30
0.0
 11
155.6677748923
 21
104.7153885227
 31
0.0
  0
LINE
  5
54
  8
0
  6
CONTINUOUS
 62
     7
 10
84.75693324300001
 20
64.0561716232
 30
0.0
 11
84.75693324300001
 21
64.08782626190001
 31
0.0
  0
LINE
  5
55
  8
0
  6
CONTINUOUS
 62
     7
 10
73.9235999096
 20
64.08782626190001
 30
0.0
 11
73.9235999096
 21
64.0561716232
 31
0.0
  0
LINE
  5
56
  8
0
  6
CONTINUOUS
 62
     7
 10
85.00650173779999
 20
61.6469189195
 30
0.0
 11
84.95995844239999
 21
63.8240294815
 31
0.0
  0
LINE
  5
57
  8
0
  6
CONTINUOUS
 62
     7
 10
73.7205747101
 20
63.8240294815
 30
0.0
 11
73.6740314148
 21
61.6469189195
 31
0.0
  0
LINE
  5
58
  8
0
  6
CONTINUOUS
 62
     7
 10
74.24713080230001
 20
58.0945160762
 30
0.0
 11
74.250287508
 21
58.0890485016
 31
0.0
  0
LINE
  5
59
  8
0
  6
CONTINUOUS
 62
     7
 10
72.2238524413
 20
60.5724189759
 30
0.0
 11
72.2238524413
 21
59.1570815686
 31
0.0
  0
LINE
  5
5A
  8
0
  6
CONTINUOUS
 62
     7
 10
73.0365495299
 20
61.5934993331
 30
0.0
 11
72.87916915690001
 21
61.5026455777
 31
0.0
  0
LINE
  5
5B
  8
0
  6
CONTINUOUS
 62
     7
 10
86.4566807113
 20
61.0620338295
 30
0.0
 11
86.4566807113
 21
62.4773712368
 31
0.0
  0
LINE
  5
5C
  8
0
  6
CONTINUOUS
 62
     7
 10
85.8013639957
 20
63.4075978386
 30
0.0
 11
84.9570967737
 21
63.8949829316
 31
0.0
  0
LINE
  5
5D
  8
0
  6
CONTINUOUS
 62
     7
 10
142.93453056
 20
99.9774871597
 30
0.0
 11
142.93453056
 21
98.75267594189999
 31
0.0
  0
LINE
  5
5E
  8
0
  6
CONTINUOUS
 62
     7
 10
157.1673588299
 20
100.6576282028
 30
0.0
 11
157.1673588299
 21
101.8824394207
 31
0.0
  0
LINE
  5
5F
  8
0
  6
CONTINUOUS
 62
     7
 10
72.2238524413
 20
59.1570815686
 30
0.0
 11
72.2238524413
 21
57.9322703508
 31
0.0
  0
LINE
  5
60
  8
0
  6
CONTINUOUS
 62
     7
 10
86.4566807113
 20
59.8372226117
 30
0.0
 11
86.4566807113
 21
61.0620338295
 31
0.0
  0
LINE
  5
61
  8
0
  6
CONTINUOUS
 62
     7
 10
213.6452086786
 20
140.7978927509
 30
0.0
 11
213.6452086786
 21
139.5730815331
 31
0.0
  0
LINE
  5
62
  8
0
  6
CONTINUOUS
 62
     7
 10
227.8780369486
 20
141.478033794
 30
0.0
 11
227.8780369486
 21
142.7028450118
 31
0.0
  0
POLYLINE
  5
63
  8
0
  6
CONTINUOUS
 62
     7
 66
     1
 10
0.0
 20
0.0
 30
0.0
  0
VERTEX
  5
21D
  8
0
  6
CONTINUOUS
 62
     7
 10
55.6521894065
 20
45.5230506195
 30
0.0
  0
VERTEX
  5
21E
  8
0
  6
CONTINUOUS
 62
     7
 10
55.6792492115
 20
45.5136448734
 30
0.0
  0
VERTEX
  5
21F
  8
0
  6
CONTINUOUS
 62
     7
 10
55.7021894065
 20
45.5181021606
 30
0.0
  0
VERTEX
  5
220
  8
0
  6
CONTINUOUS
 62
     7
 10
55.7175175548
 20
45.5357438994
 30
0.0
  0
VERTEX
  5
221
  8
0
  6
CONTINUOUS
 62
     7
 10
55.7229000847
 20
45.5638842951
 30
0.0
  0
VERTEX
  5
222
  8
0
  6
CONTINUOUS
 62
     7
 10
55.7175175548
 20
45.5982392275
 30
0.0
  0
VERTEX
  5
223
  8
0
  6
CONTINUOUS
 62
     7
 10
55.7021894065
 20
45.6335784696
 30
0.0
  0
VERTEX
  5
224
  8
0
  6
CONTINUOUS
 62
     7
 10
55.6792492115
 20
45.6645219421
 30
0.0
  0
VERTEX
  5
225
  8
0
  6
CONTINUOUS
 62
     7
 10
55.6521894065
 20
45.6863587819
 30
0.0
  0
SEQEND
  5
21C
  8
0
  6
CONTINUOUS
 62
     7
  0
ARC
  5
64
  8
0
  6
CONTINUOUS
 62
     7
 10
56.9315361577
 20
45.628141405
 30
0.0
 40
1.280670672976908
 50
122.60547834
 51
177.3945215143
  0
POLYLINE
  5
65
  8
0
  6
CONTINUOUS
 62
     7
 66
     1
 10
0.0
 20
0.0
 30
0.0
  0
VERTEX
  5
227
  8
0
  6
CONTINUOUS
 62
     7
 10
58.9520210521
 20
48.2717617194
 30
0.0
  0
VERTEX
  5
228
  8
0
  6
CONTINUOUS
 62
     7
 10
59.2045792321
 20
48.067951215
 30
0.0
  0
VERTEX
  5
229
  8
0
  6
CONTINUOUS
 62
     7
 10
59.4186877187
 20
47.7791454715
 30
0.0
  0
VERTEX
  5
22A
  8
0
  6
CONTINUOUS
 62
     7
 10
59.5617504357
 20
47.4493125453
 30
0.0
  0
VERTEX
  5
22B
  8
0
  6
CONTINUOUS
 62
     7
 10
59.6119873812
 20
47.1286665094
 30
0.0
  0
VERTEX
  5
22C
  8
0
  6
CONTINUOUS
 62
     7
 10
59.5617504357
 20
46.8660228162
 30
0.0
  0
VERTEX
  5
22D
  8
0
  6
CONTINUOUS
 62
     7
 10
59.4186877187
 20
46.7013665871
 30
0.0
  0
VERTEX
  5
22E
  8
0
  6
CONTINUOUS
 62
     7
 10
59.418649794
 20
46.7013446901
 30
0.0
  0
SEQEND
  5
226
  8
0
  6
CONTINUOUS
 62
     7
  0
LINE
  5
66
  8
0
  6
CONTINUOUS
 62
     7
 10
58.9520210521
 20
48.2717617194
 30
0.0
 11
56.2414450575
 21
46.706979505
 31
0.0
  0
LINE
  5
67
  8
0
  6
CONTINUOUS
 62
     7
 10
54.8272314952
 20
47.5233876169
 30
0.0
 11
56.2414450575
 21
46.706979505
 31
0.0
  0
LINE
  5
68
  8
0
  6
CONTINUOUS
 62
     7
 10
55.6521894065
 20
45.6863587819
 30
0.0
 11
54.2379758442
 21
46.5027668937
 31
0.0
  0
ARC
  5
69
  8
0
  6
CONTINUOUS
 62
     7
 10
55.5173225953
 20
46.4445495168
 30
0.0
 40
1.280670672976807
 50
122.60547834
 51
177.3945215143
  0
POLYLINE
  5
6A
  8
0
  6
CONTINUOUS
 62
     7
 66
     1
 10
0.0
 20
0.0
 30
0.0
  0
VERTEX
  5
230
  8
0
  6
CONTINUOUS
 62
     7
 10
54.2379758442
 20
46.5027668937
 30
0.0
  0
VERTEX
  5
231
  8
0
  6
CONTINUOUS
 62
     7
 10
54.2109160392
 20
46.5121726398
 30
0.0
  0
VERTEX
  5
232
  8
0
  6
CONTINUOUS
 62
     7
 10
54.1879758442
 20
46.5077153526
 30
0.0
  0
VERTEX
  5
233
  8
0
  6
CONTINUOUS
 62
     7
 10
54.1726476959
 20
46.4900736138
 30
0.0
  0
VERTEX
  5
234
  8
0
  6
CONTINUOUS
 62
     7
 10
54.167265166
 20
46.4619332181
 30
0.0
  0
VERTEX
  5
235
  8
0
  6
CONTINUOUS
 62
     7
 10
54.1726476959
 20
46.4275782857
 30
0.0
  0
VERTEX
  5
236
  8
0
  6
CONTINUOUS
 62
     7
 10
54.1879758442
 20
46.3922390436
 30
0.0
  0
VERTEX
  5
237
  8
0
  6
CONTINUOUS
 62
     7
 10
54.2109160392
 20
46.3612955711
 30
0.0
  0
VERTEX
  5
238
  8
0
  6
CONTINUOUS
 62
     7
 10
54.2379758442
 20
46.3394587313
 30
0.0
  0
SEQEND
  5
22F
  8
0
  6
CONTINUOUS
 62
     7
  0
LINE
  5
6B
  8
0
  6
CONTINUOUS
 62
     7
 10
54.2379758442
 20
46.3394587313
 30
0.0
 11
55.6521894065
 21
45.5230506195
 31
0.0
  0
LINE
  5
6C
  8
0
  6
CONTINUOUS
 62
     7
 10
57.5378074897
 20
49.0881698312
 30
0.0
 11
58.9520210521
 21
48.2717617194
 31
0.0
  0
LINE
  5
6D
  8
0
  6
CONTINUOUS
 62
     7
 10
57.5378074897
 20
49.0881698312
 30
0.0
 11
54.8272314952
 21
47.5233876169
 31
0.0
  0
POLYLINE
  5
6E
  8
0
  6
CONTINUOUS
 62
     7
 66
     1
 10
0.0
 20
0.0
 30
0.0
  0
VERTEX
  5
23A
  8
0
  6
CONTINUOUS
 62
     7
 10
57.0711787478
 20
49.134377345
 30
0.0
  0
VERTEX
  5
23B
  8
0
  6
CONTINUOUS
 62
     7
 10
57.2852493096
 20
49.1759567947
 30
0.0
  0
VERTEX
  5
23C
  8
0
  6
CONTINUOUS
 62
     7
 10
57.5378074897
 20
49.0881698312
 30
0.0
  0
SEQEND
  5
239
  8
0
  6
CONTINUOUS
 62
     7
  0
POLYLINE
  5
6F
  8
0
  6
CONTINUOUS
 62
     7
 66
     1
 10
0.0
 20
0.0
 30
0.0
  0
VERTEX
  5
23E
  8
0
  6
CONTINUOUS
 62
     7
 10
245.1568067645
 20
155.6294063074
 30
0.0
  0
VERTEX
  5
23F
  8
0
  6
CONTINUOUS
 62
     7
 10
245.3642652696
 20
155.4619905359
 30
0.0
  0
VERTEX
  5
240
  8
0
  6
CONTINUOUS
 62
     7
 10
245.5401400979
 20
155.2247572466
 30
0.0
  0
VERTEX
  5
241
  8
0
  6
CONTINUOUS
 62
     7
 10
245.6576559011
 20
154.9538230572
 30
0.0
  0
VERTEX
  5
242
  8
0
  6
CONTINUOUS
 62
     7
 10
245.6989219634
 20
154.6904352421
 30
0.0
  0
VERTEX
  5
243
  8
0
  6
CONTINUOUS
 62
     7
 10
245.6576559011
 20
154.4746922084
 30
0.0
  0
VERTEX
  5
244
  8
0
  6
CONTINUOUS
 62
     7
 10
245.5401400979
 20
154.3394388773
 30
0.0
  0
VERTEX
  5
245
  8
0
  6
CONTINUOUS
 62
     7
 10
245.5401089454
 20
154.3394208904
 30
0.0
  0
SEQEND
  5
23D
  8
0
  6
CONTINUOUS
 62
     7
  0
LINE
  5
70
  8
0
  6
CONTINUOUS
 62
     7
 10
244.6854022437
 20
155.9015423446
 30
0.0
 11
226.5539535481
 21
145.4344798103
 31
0.0
  0
LINE
  5
71
  8
0
  6
CONTINUOUS
 62
     7
 10
216.1654287359
 20
139.4373120896
 30
0.0
 11
155.8432754294
 21
104.6140742192
 31
0.0
  0
LINE
  5
72
  8
0
  6
CONTINUOUS
 62
     7
 10
145.4547506172
 20
98.6169064984
 30
0.0
 11
85.13259731070001
 21
63.793668628
 31
0.0
  0
LINE
  5
73
  8
0
  6
CONTINUOUS
 62
     7
 10
74.74407249860001
 20
57.7965009073
 30
0.0
 11
58.5984868172
 21
48.475852689
 31
0.0
  0
LINE
  5
74
  8
0
  6
CONTINUOUS
 62
     7
 10
244.6854022437
 20
155.9015423446
 30
0.0
 11
245.1568067645
 21
155.6294063074
 31
0.0
  0
LINE
  5
75
  8
0
  6
CONTINUOUS
 62
     7
 10
244.4496999833
 20
155.8198661468
 30
0.0
 11
226.5068437451
 21
145.4616757207
 31
0.0
  0
LINE
  5
76
  8
0
  6
CONTINUOUS
 62
     7
 10
215.9297264755
 20
139.3556358917
 30
0.0
 11
155.7961656264
 21
104.6412701296
 31
0.0
  0
LINE
  5
77
  8
0
  6
CONTINUOUS
 62
     7
 10
145.2190483568
 20
98.53523030060001
 30
0.0
 11
85.0854875078
 21
63.8208645384
 31
0.0
  0
LINE
  5
78
  8
0
  6
CONTINUOUS
 62
     7
 10
74.5083702382
 20
57.7148247094
 30
0.0
 11
58.5513770142
 21
48.5030485994
 31
0.0
  0
LINE
  5
79
  8
0
  6
CONTINUOUS
 62
     7
 10
244.4496999833
 20
155.8198661468
 30
0.0
 11
244.6854022437
 21
155.9015423446
 31
0.0
  0
LINE
  5
7A
  8
0
  6
CONTINUOUS
 62
     7
 10
244.2139977229
 20
156.1736783819
 30
0.0
 11
226.5217286664
 21
145.9601488567
 31
0.0
  0
LINE
  5
7B
  8
0
  6
CONTINUOUS
 62
     7
 10
215.6940242151
 20
139.7094481268
 30
0.0
 11
155.8110505477
 21
105.1397432655
 31
0.0
  0
LINE
  5
7C
  8
0
  6
CONTINUOUS
 62
     7
 10
144.9833460964
 20
98.8890425357
 30
0.0
 11
85.10037242910001
 21
64.3193376744
 31
0.0
  0
LINE
  5
7D
  8
0
  6
CONTINUOUS
 62
     7
 10
74.2726679778
 20
58.0686369446
 30
0.0
 11
58.1270822964
 21
48.7479887263
 31
0.0
  0
LINE
  5
7E
  8
0
  6
CONTINUOUS
 62
     7
 10
244.2139977229
 20
156.1736783819
 30
0.0
 11
244.4496999833
 21
155.8198661468
 31
0.0
  0
LINE
  5
7F
  8
0
  6
CONTINUOUS
 62
     7
 10
243.7425932022
 20
156.4458144192
 30
0.0
 11
244.2139977229
 21
156.1736783819
 31
0.0
  0
POLYLINE
  5
80
  8
0
  6
CONTINUOUS
 62
     7
 66
     1
 10
0.0
 20
0.0
 30
0.0
  0
VERTEX
  5
247
  8
0
  6
CONTINUOUS
 62
     7
 10
243.3592910213
 20
156.4837705912
 30
0.0
  0
VERTEX
  5
248
  8
0
  6
CONTINUOUS
 62
     7
 10
243.5351346971
 20
156.5179251392
 30
0.0
  0
VERTEX
  5
249
  8
0
  6
CONTINUOUS
 62
     7
 10
243.7425932022
 20
156.4458144192
 30
0.0
  0
SEQEND
  5
246
  8
0
  6
CONTINUOUS
 62
     7
  0
ARC
  5
81
  8
0
  6
CONTINUOUS
 62
     7
 10
79.34277445319999
 20
72.86389338230001
 30
0.0
 40
10.35391334842502
 50
252.8851906435
 51
278.8466527454
  0
ARC
  5
82
  8
0
  6
CONTINUOUS
 62
     7
 10
220.7641306905
 20
154.5047045645
 30
0.0
 40
10.35391334842402
 50
252.8851906435
 51
278.8466527454
  0
ARC
  5
83
  8
0
  6
CONTINUOUS
 62
     7
 10
150.0534525719
 20
113.6842989734
 30
0.0
 40
10.35391334842377
 50
252.8851906435
 51
278.8466527454
  0
POLYLINE
  5
84
  8
0
  6
CONTINUOUS
 62
     7
 66
     1
 10
0.0
 20
0.0
 30
0.0
  0
VERTEX
  5
24B
  8
0
  6
CONTINUOUS
 62
     7
 10
225.7269230323
 20
145.4543757053
 30
0.0
  0
VERTEX
  5
24C
  8
0
  6
CONTINUOUS
 62
     7
 10
225.7263350329
 20
145.4535974012
 30
0.0
  0
VERTEX
  5
24D
  8
0
  6
CONTINUOUS
 62
     7
 10
225.3480455594
 20
145.0403987473
 30
0.0
  0
VERTEX
  5
24E
  8
0
  6
CONTINUOUS
 62
     7
 10
224.8673029806
 20
144.664363309
 30
0.0
  0
VERTEX
  5
24F
  8
0
  6
CONTINUOUS
 62
     7
 10
224.2948462914
 20
144.3338910966
 30
0.0
  0
VERTEX
  5
250
  8
0
  6
CONTINUOUS
 62
     7
 10
223.6434632281
 20
144.0563643132
 30
0.0
  0
VERTEX
  5
251
  8
0
  6
CONTINUOUS
 62
     7
 10
222.927704612
 20
143.8379824485
 30
0.0
  0
VERTEX
  5
252
  8
0
  6
CONTINUOUS
 62
     7
 10
222.1635593079
 20
143.6836237926
 30
0.0
  0
VERTEX
  5
253
  8
0
  6
CONTINUOUS
 62
     7
 10
221.3680970592
 20
143.5967364628
 30
0.0
  0
VERTEX
  5
254
  8
0
  6
CONTINUOUS
 62
     7
 10
220.5590871779
 20
143.5792613784
 30
0.0
  0
VERTEX
  5
255
  8
0
  6
CONTINUOUS
 62
     7
 10
219.7546016081
 20
143.6315889039
 30
0.0
  0
VERTEX
  5
256
  8
0
  6
CONTINUOUS
 62
     7
 10
218.972611228
 20
143.7525501289
 30
0.0
  0
VERTEX
  5
257
  8
0
  6
CONTINUOUS
 62
     7
 10
218.2305844105
 20
143.9394429795
 30
0.0
  0
VERTEX
  5
258
  8
0
  6
CONTINUOUS
 62
     7
 10
217.5450968084
 20
144.1880925782
 30
0.0
  0
VERTEX
  5
259
  8
0
  6
CONTINUOUS
 62
     7
 10
216.9314610822
 20
144.4929445039
 30
0.0
  0
VERTEX
  5
25A
  8
0
  6
CONTINUOUS
 62
     7
 10
216.4033848399
 20
144.8471888684
 30
0.0
  0
VERTEX
  5
25B
  8
0
  6
CONTINUOUS
 62
     7
 10
215.9726644321
 20
145.2429124378
 30
0.0
  0
VERTEX
  5
25C
  8
0
  6
CONTINUOUS
 62
     7
 10
215.7963225949
 20
145.4543757053
 30
0.0
  0
SEQEND
  5
24A
  8
0
  6
CONTINUOUS
 62
     7
  0
POLYLINE
  5
85
  8
0
  6
CONTINUOUS
 62
     7
 66
     1
 10
0.0
 20
0.0
 30
0.0
  0
VERTEX
  5
25E
  8
0
  6
CONTINUOUS
 62
     7
 10
216.1437488163
 20
145.2646647837
 30
0.0
  0
VERTEX
  5
25F
  8
0
  6
CONTINUOUS
 62
     7
 10
216.4838446178
 20
144.9631234592
 30
0.0
  0
VERTEX
  5
260
  8
0
  6
CONTINUOUS
 62
     7
 10
217.0021717603
 20
144.6154189907
 30
0.0
  0
VERTEX
  5
261
  8
0
  6
CONTINUOUS
 62
     7
 10
217.604478827
 20
144.3161951005
 30
0.0
  0
VERTEX
  5
262
  8
0
  6
CONTINUOUS
 62
     7
 10
218.2773112733
 20
144.0721359559
 30
0.0
  0
VERTEX
  5
263
  8
0
  6
CONTINUOUS
 62
     7
 10
219.0056391342
 20
143.8886934349
 30
0.0
  0
VERTEX
  5
264
  8
0
  6
CONTINUOUS
 62
     7
 10
219.7731927688
 20
143.7699653402
 30
0.0
  0
VERTEX
  5
265
  8
0
  6
CONTINUOUS
 62
     7
 10
220.5628262974
 20
143.7186038613
 30
0.0
  0
VERTEX
  5
266
  8
0
  6
CONTINUOUS
 62
     7
 10
221.3569006115
 20
143.7357563288
 30
0.0
  0
VERTEX
  5
267
  8
0
  6
CONTINUOUS
 62
     7
 10
222.1376774034
 20
143.8210395849
 30
0.0
  0
VERTEX
  5
268
  8
0
  6
CONTINUOUS
 62
     7
 10
222.8877154096
 20
143.9725485425
 30
0.0
  0
VERTEX
  5
269
  8
0
  6
CONTINUOUS
 62
     7
 10
223.5902600204
 20
144.186898742
 30
0.0
  0
VERTEX
  5
26A
  8
0
  6
CONTINUOUS
 62
     7
 10
224.2296175502
 20
144.459301954
 30
0.0
  0
VERTEX
  5
26B
  8
0
  6
CONTINUOUS
 62
     7
 10
224.7915058083
 20
144.7836731409
 30
0.0
  0
VERTEX
  5
26C
  8
0
  6
CONTINUOUS
 62
     7
 10
225.2633731395
 20
145.1527663865
 30
0.0
  0
VERTEX
  5
26D
  8
0
  6
CONTINUOUS
 62
     7
 10
225.3794968109
 20
145.2646647837
 30
0.0
  0
SEQEND
  5
25D
  8
0
  6
CONTINUOUS
 62
     7
  0
POLYLINE
  5
86
  8
0
  6
CONTINUOUS
 62
     7
 66
     1
 10
0.0
 20
0.0
 30
0.0
  0
VERTEX
  5
26F
  8
0
  6
CONTINUOUS
 62
     7
 10
216.9314610822
 20
143.4858775026
 30
0.0
  0
VERTEX
  5
270
  8
0
  6
CONTINUOUS
 62
     7
 10
216.4033848399
 20
143.8401218671
 30
0.0
  0
VERTEX
  5
271
  8
0
  6
CONTINUOUS
 62
     7
 10
215.9726644321
 20
144.2358454365
 30
0.0
  0
VERTEX
  5
272
  8
0
  6
CONTINUOUS
 62
     7
 10
215.6489214411
 20
144.6642084003
 30
0.0
  0
VERTEX
  5
273
  8
0
  6
CONTINUOUS
 62
     7
 10
215.4393877502
 20
145.1156418377
 30
0.0
  0
VERTEX
  5
274
  8
0
  6
CONTINUOUS
 62
     7
 10
215.348743996
 20
145.5800614717
 30
0.0
  0
VERTEX
  5
275
  8
0
  6
CONTINUOUS
 62
     7
 10
215.3449561469
 20
145.6969828055
 30
0.0
  0
SEQEND
  5
26E
  8
0
  6
CONTINUOUS
 62
     7
  0
POLYLINE
  5
87
  8
0
  6
CONTINUOUS
 62
     7
 66
     1
 10
0.0
 20
0.0
 30
0.0
  0
VERTEX
  5
277
  8
0
  6
CONTINUOUS
 62
     7
 10
226.1782894803
 20
145.6969828055
 30
0.0
  0
VERTEX
  5
278
  8
0
  6
CONTINUOUS
 62
     7
 10
226.1442306172
 20
145.3468726758
 30
0.0
  0
VERTEX
  5
279
  8
0
  6
CONTINUOUS
 62
     7
 10
225.9937210393
 20
144.8876620942
 30
0.0
  0
VERTEX
  5
27A
  8
0
  6
CONTINUOUS
 62
     7
 10
225.7263350329
 20
144.4465303999
 30
0.0
  0
VERTEX
  5
27B
  8
0
  6
CONTINUOUS
 62
     7
 10
225.3480455594
 20
144.033331746
 30
0.0
  0
VERTEX
  5
27C
  8
0
  6
CONTINUOUS
 62
     7
 10
224.8673029806
 20
143.6572963077
 30
0.0
  0
VERTEX
  5
27D
  8
0
  6
CONTINUOUS
 62
     7
 10
224.2948462914
 20
143.3268240953
 30
0.0
  0
VERTEX
  5
27E
  8
0
  6
CONTINUOUS
 62
     7
 10
223.6434632281
 20
143.0492973119
 30
0.0
  0
VERTEX
  5
27F
  8
0
  6
CONTINUOUS
 62
     7
 10
222.927704612
 20
142.8309154472
 30
0.0
  0
VERTEX
  5
280
  8
0
  6
CONTINUOUS
 62
     7
 10
222.1635593079
 20
142.6765567913
 30
0.0
  0
VERTEX
  5
281
  8
0
  6
CONTINUOUS
 62
     7
 10
221.3680970592
 20
142.5896694615
 30
0.0
  0
VERTEX
  5
282
  8
0
  6
CONTINUOUS
 62
     7
 10
220.5590871779
 20
142.572194377
 30
0.0
  0
VERTEX
  5
283
  8
0
  6
CONTINUOUS
 62
     7
 10
219.7546016081
 20
142.6245219026
 30
0.0
  0
VERTEX
  5
284
  8
0
  6
CONTINUOUS
 62
     7
 10
218.972611228
 20
142.7454831275
 30
0.0
  0
VERTEX
  5
285
  8
0
  6
CONTINUOUS
 62
     7
 10
218.2305844105
 20
142.9323759781
 30
0.0
  0
VERTEX
  5
286
  8
0
  6
CONTINUOUS
 62
     7
 10
217.5450968084
 20
143.1810255769
 30
0.0
  0
VERTEX
  5
287
  8
0
  6
CONTINUOUS
 62
     7
 10
216.9314610822
 20
143.4858775026
 30
0.0
  0
SEQEND
  5
276
  8
0
  6
CONTINUOUS
 62
     7
  0
ARC
  5
88
  8
0
  6
CONTINUOUS
 62
     7
 10
220.7693001809
 20
151.7788705209
 30
0.0
 40
7.751179632564694
 50
250.2821845256
 51
283.1991078891
  0
POLYLINE
  5
89
  8
0
  6
CONTINUOUS
 62
     7
 66
     1
 10
0.0
 20
0.0
 30
0.0
  0
VERTEX
  5
289
  8
0
  6
CONTINUOUS
 62
     7
 10
216.7875979729
 20
143.1306468268
 30
0.0
  0
VERTEX
  5
28A
  8
0
  6
CONTINUOUS
 62
     7
 10
216.2513250355
 20
143.4891265498
 30
0.0
  0
VERTEX
  5
28B
  8
0
  6
CONTINUOUS
 62
     7
 10
215.8111812647
 20
143.8888618458
 30
0.0
  0
VERTEX
  5
28C
  8
0
  6
CONTINUOUS
 62
     7
 10
215.4765475608
 20
144.321333051
 30
0.0
  0
VERTEX
  5
28D
  8
0
  6
CONTINUOUS
 62
     7
 10
215.2545560602
 20
144.7773227924
 30
0.0
  0
VERTEX
  5
28E
  8
0
  6
CONTINUOUS
 62
     7
 10
215.1499381263
 20
145.2471124404
 30
0.0
  0
VERTEX
  5
28F
  8
0
  6
CONTINUOUS
 62
     7
 10
215.1649235088
 20
145.7206892443
 30
0.0
  0
VERTEX
  5
290
  8
0
  6
CONTINUOUS
 62
     7
 10
215.1861833269
 20
145.8330969566
 30
0.0
  0
SEQEND
  5
288
  8
0
  6
CONTINUOUS
 62
     7
  0
POLYLINE
  5
8A
  8
0
  6
CONTINUOUS
 62
     7
 66
     1
 10
0.0
 20
0.0
 30
0.0
  0
VERTEX
  5
292
  8
0
  6
CONTINUOUS
 62
     7
 10
226.3370623003
 20
145.8330969566
 30
0.0
  0
VERTEX
  5
293
  8
0
  6
CONTINUOUS
 62
     7
 10
226.3808051942
 20
145.365546148
 30
0.0
  0
VERTEX
  5
294
  8
0
  6
CONTINUOUS
 62
     7
 10
226.3059782301
 20
144.8938641862
 30
0.0
  0
VERTEX
  5
295
  8
0
  6
CONTINUOUS
 62
     7
 10
226.1129829561
 20
144.4334982535
 30
0.0
  0
VERTEX
  5
296
  8
0
  6
CONTINUOUS
 62
     7
 10
225.8059327314
 20
143.9942602505
 30
0.0
  0
VERTEX
  5
297
  8
0
  6
CONTINUOUS
 62
     7
 10
225.3913717985
 20
143.5855117727
 30
0.0
  0
VERTEX
  5
298
  8
0
  6
CONTINUOUS
 62
     7
 10
224.878135804
 20
143.2159645842
 30
0.0
  0
VERTEX
  5
299
  8
0
  6
CONTINUOUS
 62
     7
 10
224.2771634819
 20
142.8934949417
 30
0.0
  0
VERTEX
  5
29A
  8
0
  6
CONTINUOUS
 62
     7
 10
223.601263514
 20
142.6249757258
 30
0.0
  0
VERTEX
  5
29B
  8
0
  6
CONTINUOUS
 62
     7
 10
222.8648415346
 20
142.4161299575
 30
0.0
  0
VERTEX
  5
29C
  8
0
  6
CONTINUOUS
 62
     7
 10
222.0835930996
 20
142.2714088216
 30
0.0
  0
VERTEX
  5
29D
  8
0
  6
CONTINUOUS
 62
     7
 10
221.2741691632
 20
142.193896798
 30
0.0
  0
VERTEX
  5
29E
  8
0
  6
CONTINUOUS
 62
     7
 10
220.4538211912
 20
142.1852459208
 30
0.0
  0
VERTEX
  5
29F
  8
0
  6
CONTINUOUS
 62
     7
 10
219.6400334763
 20
142.2456405684
 30
0.0
  0
VERTEX
  5
2A0
  8
0
  6
CONTINUOUS
 62
     7
 10
218.850150491
 20
142.3737935339
 30
0.0
  0
VERTEX
  5
2A1
  8
0
  6
CONTINUOUS
 62
     7
 10
218.1010072196
 20
142.5669734592
 30
0.0
  0
VERTEX
  5
2A2
  8
0
  6
CONTINUOUS
 62
     7
 10
217.4085703503
 20
142.8210630497
 30
0.0
  0
VERTEX
  5
2A3
  8
0
  6
CONTINUOUS
 62
     7
 10
216.7875979729
 20
143.1306468268
 30
0.0
  0
SEQEND
  5
291
  8
0
  6
CONTINUOUS
 62
     7
  0
POLYLINE
  5
8B
  8
0
  6
CONTINUOUS
 62
     7
 66
     1
 10
0.0
 20
0.0
 30
0.0
  0
VERTEX
  5
2A5
  8
0
  6
CONTINUOUS
 62
     7
 10
215.0953876521
 20
143.2877301017
 30
0.0
  0
VERTEX
  5
2A6
  8
0
  6
CONTINUOUS
 62
     7
 10
215.1412096791
 20
142.8302456053
 30
0.0
  0
VERTEX
  5
2A7
  8
0
  6
CONTINUOUS
 62
     7
 10
215.306307349
 20
142.362273759
 30
0.0
  0
VERTEX
  5
2A8
  8
0
  6
CONTINUOUS
 62
     7
 10
215.5876755968
 20
141.9131659972
 30
0.0
  0
VERTEX
  5
2A9
  8
0
  6
CONTINUOUS
 62
     7
 10
215.9793175468
 20
141.492494272
 30
0.0
  0
VERTEX
  5
2AA
  8
0
  6
CONTINUOUS
 62
     7
 10
216.4728860307
 20
141.1092244711
 30
0.0
  0
VERTEX
  5
2AB
  8
0
  6
CONTINUOUS
 62
     7
 10
217.0578614933
 20
140.7715253247
 30
0.0
  0
VERTEX
  5
2AC
  8
0
  6
CONTINUOUS
 62
     7
 10
217.7217761981
 20
140.4865943038
 30
0.0
  0
VERTEX
  5
2AD
  8
0
  6
CONTINUOUS
 62
     7
 10
218.4504799559
 20
140.2605042186
 30
0.0
  0
VERTEX
  5
2AE
  8
0
  6
CONTINUOUS
 62
     7
 10
219.2284417112
 20
140.0980737865
 30
0.0
  0
VERTEX
  5
2AF
  8
0
  6
CONTINUOUS
 62
     7
 10
220.0390805599
 20
140.0027649304
 30
0.0
  0
VERTEX
  5
2B0
  8
0
  6
CONTINUOUS
 62
     7
 10
220.8651191423
 20
139.9766089929
 30
0.0
  0
VERTEX
  5
2B1
  8
0
  6
CONTINUOUS
 62
     7
 10
221.6889518801
 20
140.0201634426
 30
0.0
  0
VERTEX
  5
2B2
  8
0
  6
CONTINUOUS
 62
     7
 10
222.4930202089
 20
140.1324999918
 30
0.0
  0
VERTEX
  5
2B3
  8
0
  6
CONTINUOUS
 62
     7
 10
223.2601868081
 20
140.3112243821
 30
0.0
  0
VERTEX
  5
2B4
  8
0
  6
CONTINUOUS
 62
     7
 10
223.9741008537
 20
140.5525274135
 30
0.0
  0
VERTEX
  5
2B5
  8
0
  6
CONTINUOUS
 62
     7
 10
224.6195465072
 20
140.8512661306
 30
0.0
  0
VERTEX
  5
2B6
  8
0
  6
CONTINUOUS
 62
     7
 10
225.1827672151
 20
141.2010734365
 30
0.0
  0
VERTEX
  5
2B7
  8
0
  6
CONTINUOUS
 62
     7
 10
225.6517589059
 20
141.5944937957
 30
0.0
  0
VERTEX
  5
2B8
  8
0
  6
CONTINUOUS
 62
     7
 10
226.0165258358
 20
142.0231421363
 30
0.0
  0
VERTEX
  5
2B9
  8
0
  6
CONTINUOUS
 62
     7
 10
226.2692936312
 20
142.4778825632
 30
0.0
  0
VERTEX
  5
2BA
  8
0
  6
CONTINUOUS
 62
     7
 10
226.4046749852
 20
142.9490230735
 30
0.0
  0
VERTEX
  5
2BB
  8
0
  6
CONTINUOUS
 62
     7
 10
226.4278579751
 20
143.2877301017
 30
0.0
  0
SEQEND
  5
2A4
  8
0
  6
CONTINUOUS
 62
     7
  0
ARC
  5
8C
  8
0
  6
CONTINUOUS
 62
     7
 10
226.8525417743
 20
144.1998365003
 30
0.0
 40
0.9023383214574785
 50
290.7834207995
 51
69.21657920049999
  0
LINE
  5
8D
  8
0
  6
CONTINUOUS
 62
     7
 10
227.0153439233
 20
143.2653610292
 30
0.0
 11
227.1727242964
 21
143.3562147847
 31
0.0
  0
ARC
  5
8E
  8
0
  6
CONTINUOUS
 62
     7
 10
227.3659636874
 20
142.5528598076
 30
0.0
 40
0.7940983628292532
 50
116.2016637115
 51
162.5408912084
  0
POLYLINE
  5
8F
  8
0
  6
CONTINUOUS
 62
     7
 66
     1
 10
0.0
 20
0.0
 30
0.0
  0
VERTEX
  5
2BD
  8
0
  6
CONTINUOUS
 62
     7
 10
221.5519586152
 20
139.8720598098
 30
0.0
  0
VERTEX
  5
2BE
  8
0
  6
CONTINUOUS
 62
     7
 10
222.3866455046
 20
139.9731006362
 30
0.0
  0
VERTEX
  5
2BF
  8
0
  6
CONTINUOUS
 62
     7
 10
223.1873784022
 20
140.1425553924
 30
0.0
  0
VERTEX
  5
2C0
  8
0
  6
CONTINUOUS
 62
     7
 10
223.9374264163
 20
140.3768834109
 30
0.0
  0
VERTEX
  5
2C1
  8
0
  6
CONTINUOUS
 62
     7
 10
224.6211176894
 20
140.6711885312
 30
0.0
  0
VERTEX
  5
2C2
  8
0
  6
CONTINUOUS
 62
     7
 10
225.224166853
 20
141.0193214031
 30
0.0
  0
VERTEX
  5
2C3
  8
0
  6
CONTINUOUS
 62
     7
 10
225.7339735129
 20
141.414007974
 30
0.0
  0
VERTEX
  5
2C4
  8
0
  6
CONTINUOUS
 62
     7
 10
226.1398855279
 20
141.847001476
 30
0.0
  0
VERTEX
  5
2C5
  8
0
  6
CONTINUOUS
 62
     7
 10
226.4334215806
 20
142.3092547384
 30
0.0
  0
VERTEX
  5
2C6
  8
0
  6
CONTINUOUS
 62
     7
 10
226.5799958594
 20
142.682757906
 30
0.0
  0
SEQEND
  5
2BC
  8
0
  6
CONTINUOUS
 62
     7
  0
ARC
  5
90
  8
0
  6
CONTINUOUS
 62
     7
 10
221.6704095971
 20
137.903770714
 30
0.0
 40
1.971850045000268
 50
93.443887476
 51
118.4696749733
  0
LINE
  5
91
  8
0
  6
CONTINUOUS
 62
     7
 10
220.5730610053
 20
139.5463102629
 30
0.0
 11
220.7304413783
 21
139.6371640184
 31
0.0
  0
ARC
  5
92
  8
0
  6
CONTINUOUS
 62
     7
 10
219.1117069908
 20
142.3667131718
 30
0.0
 40
3.176511943017389
 50
242.6096722366
 51
297.3903277634
  0
LINE
  5
93
  8
0
  6
CONTINUOUS
 62
     7
 10
214.3505213308
 20
141.4512625238
 30
0.0
 11
217.6503529764
 21
139.5463102629
 31
0.0
  0
ARC
  5
94
  8
0
  6
CONTINUOUS
 62
     7
 10
214.6707038529
 20
142.2948842393
 30
0.0
 40
0.9023383214574519
 50
110.7834207995
 51
249.2165792005
  0
LINE
  5
95
  8
0
  6
CONTINUOUS
 62
     7
 10
214.5079017039
 20
143.2293597104
 30
0.0
 11
214.3505213308
 21
143.1385059549
 31
0.0
  0
ARC
  5
96
  8
0
  6
CONTINUOUS
 62
     7
 10
214.1572819398
 20
143.941860932
 30
0.0
 40
0.7940983628291901
 50
296.2016637115
 51
342.5408912084
  0
ARC
  5
97
  8
0
  6
CONTINUOUS
 62
     7
 10
220.4902500733
 20
139.4168496909
 30
0.0
 40
0.1536804807574975
 50
2.6054784857
 51
57.3945216599
  0
ARC
  5
98
  8
0
  6
CONTINUOUS
 62
     7
 10
219.1117069908
 20
142.3807097935
 30
0.0
 40
3.330214133808733
 50
242.6096722366
 51
297.3903277634
  0
ARC
  5
99
  8
0
  6
CONTINUOUS
 62
     7
 10
217.7331639084
 20
139.4168496909
 30
0.0
 40
0.1536804807573224
 50
122.6054783401
 51
177.3945215143
  0
ARC
  5
9A
  8
0
  6
CONTINUOUS
 62
     7
 10
219.1117069908
 20
140.9653723862
 30
0.0
 40
3.330214133808608
 50
242.6096722366
 51
297.3903277634
  0
LINE
  5
9B
  8
0
  6
CONTINUOUS
 62
     7
 10
217.5796422983
 20
138.0084983688
 30
0.0
 11
217.5796422983
 21
139.4238357761
 31
0.0
  0
LINE
  5
9C
  8
0
  6
CONTINUOUS
 62
     7
 10
220.6437716834
 20
139.4238357761
 30
0.0
 11
220.6437716834
 21
138.0084983688
 31
0.0
  0
ARC
  5
9D
  8
0
  6
CONTINUOUS
 62
     7
 10
226.6076166795
 20
142.6905608476
 30
0.0
 40
0.1005518153618197
 50
6.3729486734
 51
89.5260747578
  0
POLYLINE
  5
9E
  8
0
  6
CONTINUOUS
 62
     7
 66
     1
 10
0.0
 20
0.0
 30
0.0
  0
VERTEX
  5
2C8
  8
0
  6
CONTINUOUS
 62
     7
 10
226.7075471286
 20
142.7017220717
 30
0.0
  0
VERTEX
  5
2C9
  8
0
  6
CONTINUOUS
 62
     7
 10
226.5295537631
 20
142.2117005618
 30
0.0
  0
VERTEX
  5
2CA
  8
0
  6
CONTINUOUS
 62
     7
 10
226.2310425231
 20
141.7416124983
 30
0.0
  0
VERTEX
  5
2CB
  8
0
  6
CONTINUOUS
 62
     7
 10
225.8182506434
 20
141.3012801234
 30
0.0
  0
VERTEX
  5
2CC
  8
0
  6
CONTINUOUS
 62
     7
 10
225.2998031927
 20
140.8999039496
 30
0.0
  0
VERTEX
  5
2CD
  8
0
  6
CONTINUOUS
 62
     7
 10
224.6865328568
 20
140.5458705206
 30
0.0
  0
VERTEX
  5
2CE
  8
0
  6
CONTINUOUS
 62
     7
 10
223.991253596
 20
140.2465771779
 30
0.0
  0
VERTEX
  5
2CF
  8
0
  6
CONTINUOUS
 62
     7
 10
223.2284929037
 20
140.0082774981
 30
0.0
  0
VERTEX
  5
2D0
  8
0
  6
CONTINUOUS
 62
     7
 10
222.4141882621
 20
139.8359506273
 30
0.0
  0
VERTEX
  5
2D1
  8
0
  6
CONTINUOUS
 62
     7
 10
221.5653541372
 20
139.7331972446
 30
0.0
  0
SEQEND
  5
2C7
  8
0
  6
CONTINUOUS
 62
     7
  0
ARC
  5
9F
  8
0
  6
CONTINUOUS
 62
     7
 10
220.8394092039
 20
139.7332455992
 30
0.0
 40
0.7259449349348902
 50
360.0
 51
11.0239117737
  0
LINE
  5
A0
  8
0
  6
CONTINUOUS
 62
     7
 10
222.0717557651
 20
138.6424050395
 30
0.0
 11
222.0717557651
 21
138.3702247689
 31
0.0
  0
LINE
  5
A1
  8
0
  6
CONTINUOUS
 62
     7
 10
221.5653541372
 20
139.7331972446
 30
0.0
 11
221.5653541372
 21
138.3178598373
 31
0.0
  0
LINE
  5
A2
  8
0
  6
CONTINUOUS
 62
     7
 10
226.7075471286
 20
141.2863846644
 30
0.0
 11
226.7075471286
 21
142.7017220717
 31
0.0
  0
LINE
  5
A3
  8
0
  6
CONTINUOUS
 62
     7
 10
226.6168385781
 20
141.2662254979
 30
0.0
 11
226.6168385781
 21
140.9940452273
 31
0.0
  0
POLYLINE
  5
A4
  8
0
  6
CONTINUOUS
 62
     7
 66
     1
 10
0.0
 20
0.0
 30
0.0
  0
VERTEX
  5
2D3
  8
0
  6
CONTINUOUS
 62
     7
 10
226.6168385781
 20
141.2662254979
 30
0.0
  0
VERTEX
  5
2D4
  8
0
  6
CONTINUOUS
 62
     7
 10
226.3739409705
 20
140.7976805358
 30
0.0
  0
VERTEX
  5
2D5
  8
0
  6
CONTINUOUS
 62
     7
 10
226.0191485277
 20
140.3535562262
 30
0.0
  0
VERTEX
  5
2D6
  8
0
  6
CONTINUOUS
 62
     7
 10
225.5595348761
 20
139.9427072377
 30
0.0
  0
VERTEX
  5
2D7
  8
0
  6
CONTINUOUS
 62
     7
 10
225.0042635007
 20
139.5733248165
 30
0.0
  0
VERTEX
  5
2D8
  8
0
  6
CONTINUOUS
 62
     7
 10
224.3644050497
 20
139.2527734746
 30
0.0
  0
VERTEX
  5
2D9
  8
0
  6
CONTINUOUS
 62
     7
 10
223.6527166145
 20
138.9874441612
 30
0.0
  0
VERTEX
  5
2DA
  8
0
  6
CONTINUOUS
 62
     7
 10
222.8833873871
 20
138.7826268437
 30
0.0
  0
VERTEX
  5
2DB
  8
0
  6
CONTINUOUS
 62
     7
 10
222.0717557651
 20
138.6424050395
 30
0.0
  0
SEQEND
  5
2D2
  8
0
  6
CONTINUOUS
 62
     7
  0
ARC
  5
A5
  8
0
  6
CONTINUOUS
 62
     7
 10
220.7832769459
 20
148.3558278948
 30
0.0
 40
10.0683885233495
 50
274.4550233579
 51
277.3524578077
  0
ARC
  5
A6
  8
0
  6
CONTINUOUS
 62
     7
 10
224.5748731348
 20
141.7878790031
 30
0.0
 40
2.190843430167564
 50
338.7559267474
 51
346.7674050817
  0
ARC
  5
A7
  8
0
  6
CONTINUOUS
 62
     7
 10
221.6755410972
 20
137.9022306438
 30
0.0
 40
1.834279111627831
 50
93.443887476
 51
118.4696749733
  0
ARC
  5
A8
  8
0
  6
CONTINUOUS
 62
     7
 10
220.6476304463
 20
139.5077034463
 30
0.0
 40
0.1536804807571826
 50
2.6054784857
 51
57.39452166
  0
LINE
  5
A9
  8
0
  6
CONTINUOUS
 62
     7
 10
220.8011520564
 20
139.5146895316
 30
0.0
 11
220.6437716834
 21
139.4238357761
 31
0.0
  0
LINE
  5
AA
  8
0
  6
CONTINUOUS
 62
     7
 10
217.5796422983
 20
139.4238357761
 30
0.0
 11
214.2798106527
 21
141.328788037
 31
0.0
  0
ARC
  5
AB
  8
0
  6
CONTINUOUS
 62
     7
 10
214.4333322629
 20
141.3218019518
 30
0.0
 40
0.1536804807573207
 50
122.6054783401
 51
177.3945215143
  0
LINE
  5
AC
  8
0
  6
CONTINUOUS
 62
     7
 10
220.8011520564
 20
138.0993521243
 30
0.0
 11
220.8011520564
 21
139.5146895316
 31
0.0
  0
ARC
  5
AD
  8
0
  6
CONTINUOUS
 62
     7
 10
221.6755410972
 20
136.4868932365
 30
0.0
 40
1.834279111628742
 50
93.443887476
 51
118.4696749733
  0
LINE
  5
AE
  8
0
  6
CONTINUOUS
 62
     7
 10
220.6437716834
 20
138.0084983688
 30
0.0
 11
220.8011520564
 21
138.0993521243
 31
0.0
  0
ARC
  5
AF
  8
0
  6
CONTINUOUS
 62
     7
 10
216.0157512665
 20
138.2214397893
 30
0.0
 40
1.152603605678779
 50
2.6054784856
 51
57.39452166
  0
LINE
  5
B0
  8
0
  6
CONTINUOUS
 62
     7
 10
216.1889989619
 20
139.4509233148
 30
0.0
 11
216.6368332567
 21
139.1923940793
 31
0.0
  0
LINE
  5
B1
  8
0
  6
CONTINUOUS
 62
     7
 10
215.2226196943
 20
140.0088021912
 30
0.0
 11
215.6704539891
 21
139.7502729558
 31
0.0
  0
LINE
  5
B2
  8
0
  6
CONTINUOUS
 62
     7
 10
214.2798106527
 20
139.9134506297
 30
0.0
 11
214.4676777462
 21
139.8049972652
 31
0.0
  0
LINE
  5
B3
  8
0
  6
CONTINUOUS
 62
     7
 10
214.2798106527
 20
141.328788037
 30
0.0
 11
214.2798106527
 21
139.9134506297
 31
0.0
  0
LINE
  5
B4
  8
0
  6
CONTINUOUS
 62
     7
 10
217.1788203414
 20
138.2398879593
 30
0.0
 11
217.5796422983
 21
138.0084983688
 31
0.0
  0
LINE
  5
B5
  8
0
  6
CONTINUOUS
 62
     7
 10
216.1889989619
 20
139.4509233148
 30
0.0
 11
216.2097125132
 21
139.4220525787
 31
0.0
  0
LINE
  5
B6
  8
0
  6
CONTINUOUS
 62
     7
 10
222.0717557651
 20
138.3702247689
 30
0.0
 11
222.7307926476
 21
138.750678663
 31
0.0
  0
LINE
  5
B7
  8
0
  6
CONTINUOUS
 62
     7
 10
226.4292828391
 20
140.8857716038
 30
0.0
 11
226.6168385781
 21
140.9940452273
 31
0.0
  0
LINE
  5
B8
  8
0
  6
CONTINUOUS
 62
     7
 10
215.6704539891
 20
139.7502729558
 30
0.0
 11
215.6684870396
 21
139.7353272585
 31
0.0
  0
ARC
  5
B9
  8
0
  6
CONTINUOUS
 62
     7
 10
214.6154858774
 20
142.2132301582
 30
0.0
 40
0.9459998531409186
 50
110.7834207995
 51
249.2165792005
  0
ARC
  5
BA
  8
0
  6
CONTINUOUS
 62
     7
 10
214.3273792083
 20
143.1037286822
 30
0.0
 40
0.0479525546092128
 50
124.0563508078
 51
187.2558295856
  0
ARC
  5
BB
  8
0
  6
CONTINUOUS
 62
     7
 10
214.729532314
 20
140.9060232342
 30
0.0
 40
1.089701770069648
 50
185.6947992512
 51
245.6253417064
  0
ARC
  5
BC
  8
0
  6
CONTINUOUS
 62
     7
 10
226.9325329913
 20
143.1359004572
 30
0.0
 40
0.1536804807573207
 50
2.6054784857
 51
57.39452166
  0
ARC
  5
BD
  8
0
  6
CONTINUOUS
 62
     7
 10
227.4122125215
 20
142.4800947083
 30
0.0
 40
0.7386961514691899
 50
116.2016637115
 51
162.5408912084
  0
LINE
  5
BE
  8
0
  6
CONTINUOUS
 62
     7
 10
227.0860546014
 20
143.1428865424
 30
0.0
 11
227.0860546014
 21
141.7275491352
 31
0.0
  0
ARC
  5
BF
  8
0
  6
CONTINUOUS
 62
     7
 10
227.4122125215
 20
141.0647573011
 30
0.0
 40
0.738696151468922
 50
116.2016637115
 51
162.5408912084
  0
ARC
  5
C0
  8
0
  6
CONTINUOUS
 62
     7
 10
227.0899133643
 20
143.2267542127
 30
0.0
 40
0.1536804807572458
 50
2.6054784857
 51
57.39452166
  0
LINE
  5
C1
  8
0
  6
CONTINUOUS
 62
     7
 10
227.2434349745
 20
143.2337402979
 30
0.0
 11
227.0860546014
 21
143.1428865424
 31
0.0
  0
ARC
  5
C2
  8
0
  6
CONTINUOUS
 62
     7
 10
214.1110331057
 20
143.8513178689
 30
0.0
 40
0.7386961514688761
 50
296.2016637115
 51
342.5408912084
  0
ARC
  5
C3
  8
0
  6
CONTINUOUS
 62
     7
 10
214.8991680981
 20
143.6211774443
 30
0.0
 40
0.0839025997530005
 50
79.2643964976
 51
174.1765417023
  0
LINE
  5
C4
  8
0
  6
CONTINUOUS
 62
     7
 10
227.2434349745
 20
141.8184028907
 30
0.0
 11
227.2434349745
 21
143.2337402979
 31
0.0
  0
LINE
  5
C5
  8
0
  6
CONTINUOUS
 62
     7
 10
227.0860546014
 20
141.7275491352
 30
0.0
 11
227.2434349745
 21
141.8184028907
 31
0.0
  0
ARC
  5
C6
  8
0
  6
CONTINUOUS
 62
     7
 10
227.1958664189
 20
145.0086809431
 30
0.0
 40
0.0479525546559276
 50
352.7441704487
 51
55.9436491579
  0
ARC
  5
C7
  8
0
  6
CONTINUOUS
 62
     7
 10
226.9077597497
 20
144.1181824191
 30
0.0
 40
0.9459998531409553
 50
290.7834207995
 51
69.21657920049999
  0
ARC
  5
C8
  8
0
  6
CONTINUOUS
 62
     7
 10
226.7937133132
 20
142.8109754951
 30
0.0
 40
1.089701770069871
 50
294.3746582936
 51
354.3052007488
  0
POLYLINE
  5
C9
  8
0
  6
CONTINUOUS
 62
     7
 66
     1
 10
0.0
 20
0.0
 30
0.0
  0
VERTEX
  5
2DD
  8
0
  6
CONTINUOUS
 62
     7
 10
214.8156984986
 20
143.6296905056
 30
0.0
  0
VERTEX
  5
2DE
  8
0
  6
CONTINUOUS
 62
     7
 10
214.9936918641
 20
144.1197120154
 30
0.0
  0
VERTEX
  5
2DF
  8
0
  6
CONTINUOUS
 62
     7
 10
215.1179162622
 20
144.3415290355
 30
0.0
  0
SEQEND
  5
2DC
  8
0
  6
CONTINUOUS
 62
     7
  0
POLYLINE
  5
CA
  8
0
  6
CONTINUOUS
 62
     7
 66
     1
 10
0.0
 20
0.0
 30
0.0
  0
VERTEX
  5
2E1
  8
0
  6
CONTINUOUS
 62
     7
 10
155.0162449136
 20
104.6339701142
 30
0.0
  0
VERTEX
  5
2E2
  8
0
  6
CONTINUOUS
 62
     7
 10
155.0156569142
 20
104.6331918101
 30
0.0
  0
VERTEX
  5
2E3
  8
0
  6
CONTINUOUS
 62
     7
 10
154.6373674408
 20
104.2199931562
 30
0.0
  0
VERTEX
  5
2E4
  8
0
  6
CONTINUOUS
 62
     7
 10
154.156624862
 20
103.8439577179
 30
0.0
  0
VERTEX
  5
2E5
  8
0
  6
CONTINUOUS
 62
     7
 10
153.5841681727
 20
103.5134855055
 30
0.0
  0
VERTEX
  5
2E6
  8
0
  6
CONTINUOUS
 62
     7
 10
152.9327851094
 20
103.2359587221
 30
0.0
  0
VERTEX
  5
2E7
  8
0
  6
CONTINUOUS
 62
     7
 10
152.2170264933
 20
103.0175768574
 30
0.0
  0
VERTEX
  5
2E8
  8
0
  6
CONTINUOUS
 62
     7
 10
151.4528811892
 20
102.8632182015
 30
0.0
  0
VERTEX
  5
2E9
  8
0
  6
CONTINUOUS
 62
     7
 10
150.6574189405
 20
102.7763308717
 30
0.0
  0
VERTEX
  5
2EA
  8
0
  6
CONTINUOUS
 62
     7
 10
149.8484090593
 20
102.7588557872
 30
0.0
  0
VERTEX
  5
2EB
  8
0
  6
CONTINUOUS
 62
     7
 10
149.0439234895
 20
102.8111833127
 30
0.0
  0
VERTEX
  5
2EC
  8
0
  6
CONTINUOUS
 62
     7
 10
148.2619331094
 20
102.9321445377
 30
0.0
  0
VERTEX
  5
2ED
  8
0
  6
CONTINUOUS
 62
     7
 10
147.5199062918
 20
103.1190373883
 30
0.0
  0
VERTEX
  5
2EE
  8
0
  6
CONTINUOUS
 62
     7
 10
146.8344186898
 20
103.3676869871
 30
0.0
  0
VERTEX
  5
2EF
  8
0
  6
CONTINUOUS
 62
     7
 10
146.2207829635
 20
103.6725389128
 30
0.0
  0
VERTEX
  5
2F0
  8
0
  6
CONTINUOUS
 62
     7
 10
145.6927067212
 20
104.0267832772
 30
0.0
  0
VERTEX
  5
2F1
  8
0
  6
CONTINUOUS
 62
     7
 10
145.2619863135
 20
104.4225068467
 30
0.0
  0
VERTEX
  5
2F2
  8
0
  6
CONTINUOUS
 62
     7
 10
145.0856444762
 20
104.6339701142
 30
0.0
  0
SEQEND
  5
2E0
  8
0
  6
CONTINUOUS
 62
     7
  0
POLYLINE
  5
CB
  8
0
  6
CONTINUOUS
 62
     7
 66
     1
 10
0.0
 20
0.0
 30
0.0
  0
VERTEX
  5
2F4
  8
0
  6
CONTINUOUS
 62
     7
 10
145.4330706977
 20
104.4442591924
 30
0.0
  0
VERTEX
  5
2F5
  8
0
  6
CONTINUOUS
 62
     7
 10
145.7731664992
 20
104.1427178681
 30
0.0
  0
VERTEX
  5
2F6
  8
0
  6
CONTINUOUS
 62
     7
 10
146.2914936416
 20
103.7950133996
 30
0.0
  0
VERTEX
  5
2F7
  8
0
  6
CONTINUOUS
 62
     7
 10
146.8938007083
 20
103.4957895094
 30
0.0
  0
VERTEX
  5
2F8
  8
0
  6
CONTINUOUS
 62
     7
 10
147.5666331546
 20
103.2517303648
 30
0.0
  0
VERTEX
  5
2F9
  8
0
  6
CONTINUOUS
 62
     7
 10
148.2949610155
 20
103.0682878437
 30
0.0
  0
VERTEX
  5
2FA
  8
0
  6
CONTINUOUS
 62
     7
 10
149.0625146502
 20
102.9495597491
 30
0.0
  0
VERTEX
  5
2FB
  8
0
  6
CONTINUOUS
 62
     7
 10
149.8521481787
 20
102.8981982702
 30
0.0
  0
VERTEX
  5
2FC
  8
0
  6
CONTINUOUS
 62
     7
 10
150.6462224929
 20
102.9153507377
 30
0.0
  0
VERTEX
  5
2FD
  8
0
  6
CONTINUOUS
 62
     7
 10
151.4269992847
 20
103.0006339937
 30
0.0
  0
VERTEX
  5
2FE
  8
0
  6
CONTINUOUS
 62
     7
 10
152.1770372909
 20
103.1521429514
 30
0.0
  0
VERTEX
  5
2FF
  8
0
  6
CONTINUOUS
 62
     7
 10
152.8795819017
 20
103.3664931508
 30
0.0
  0
VERTEX
  5
300
  8
0
  6
CONTINUOUS
 62
     7
 10
153.5189394316
 20
103.6388963628
 30
0.0
  0
VERTEX
  5
301
  8
0
  6
CONTINUOUS
 62
     7
 10
154.0808276897
 20
103.9632675498
 30
0.0
  0
VERTEX
  5
302
  8
0
  6
CONTINUOUS
 62
     7
 10
154.5526950208
 20
104.3323607954
 30
0.0
  0
VERTEX
  5
303
  8
0
  6
CONTINUOUS
 62
     7
 10
154.6688186922
 20
104.4442591925
 30
0.0
  0
SEQEND
  5
2F3
  8
0
  6
CONTINUOUS
 62
     7
  0
POLYLINE
  5
CC
  8
0
  6
CONTINUOUS
 62
     7
 66
     1
 10
0.0
 20
0.0
 30
0.0
  0
VERTEX
  5
305
  8
0
  6
CONTINUOUS
 62
     7
 10
146.2207829635
 20
102.6654719115
 30
0.0
  0
VERTEX
  5
306
  8
0
  6
CONTINUOUS
 62
     7
 10
145.6927067212
 20
103.0197162759
 30
0.0
  0
VERTEX
  5
307
  8
0
  6
CONTINUOUS
 62
     7
 10
145.2619863135
 20
103.4154398454
 30
0.0
  0
VERTEX
  5
308
  8
0
  6
CONTINUOUS
 62
     7
 10
144.9382433224
 20
103.8438028092
 30
0.0
  0
VERTEX
  5
309
  8
0
  6
CONTINUOUS
 62
     7
 10
144.7287096316
 20
104.2952362466
 30
0.0
  0
VERTEX
  5
30A
  8
0
  6
CONTINUOUS
 62
     7
 10
144.6380658773
 20
104.7596558806
 30
0.0
  0
VERTEX
  5
30B
  8
0
  6
CONTINUOUS
 62
     7
 10
144.6342780283
 20
104.8765772143
 30
0.0
  0
SEQEND
  5
304
  8
0
  6
CONTINUOUS
 62
     7
  0
POLYLINE
  5
CD
  8
0
  6
CONTINUOUS
 62
     7
 66
     1
 10
0.0
 20
0.0
 30
0.0
  0
VERTEX
  5
30D
  8
0
  6
CONTINUOUS
 62
     7
 10
155.4676113616
 20
104.8765772143
 30
0.0
  0
VERTEX
  5
30E
  8
0
  6
CONTINUOUS
 62
     7
 10
155.4335524985
 20
104.5264670847
 30
0.0
  0
VERTEX
  5
30F
  8
0
  6
CONTINUOUS
 62
     7
 10
155.2830429207
 20
104.067256503
 30
0.0
  0
VERTEX
  5
310
  8
0
  6
CONTINUOUS
 62
     7
 10
155.0156569142
 20
103.6261248087
 30
0.0
  0
VERTEX
  5
311
  8
0
  6
CONTINUOUS
 62
     7
 10
154.6373674408
 20
103.2129261549
 30
0.0
  0
VERTEX
  5
312
  8
0
  6
CONTINUOUS
 62
     7
 10
154.156624862
 20
102.8368907166
 30
0.0
  0
VERTEX
  5
313
  8
0
  6
CONTINUOUS
 62
     7
 10
153.5841681727
 20
102.5064185041
 30
0.0
  0
VERTEX
  5
314
  8
0
  6
CONTINUOUS
 62
     7
 10
152.9327851094
 20
102.2288917207
 30
0.0
  0
VERTEX
  5
315
  8
0
  6
CONTINUOUS
 62
     7
 10
152.2170264933
 20
102.0105098561
 30
0.0
  0
VERTEX
  5
316
  8
0
  6
CONTINUOUS
 62
     7
 10
151.4528811892
 20
101.8561512002
 30
0.0
  0
VERTEX
  5
317
  8
0
  6
CONTINUOUS
 62
     7
 10
150.6574189405
 20
101.7692638703
 30
0.0
  0
VERTEX
  5
318
  8
0
  6
CONTINUOUS
 62
     7
 10
149.8484090593
 20
101.7517887859
 30
0.0
  0
VERTEX
  5
319
  8
0
  6
CONTINUOUS
 62
     7
 10
149.0439234895
 20
101.8041163114
 30
0.0
  0
VERTEX
  5
31A
  8
0
  6
CONTINUOUS
 62
     7
 10
148.2619331094
 20
101.9250775364
 30
0.0
  0
VERTEX
  5
31B
  8
0
  6
CONTINUOUS
 62
     7
 10
147.5199062918
 20
102.111970387
 30
0.0
  0
VERTEX
  5
31C
  8
0
  6
CONTINUOUS
 62
     7
 10
146.8344186898
 20
102.3606199857
 30
0.0
  0
VERTEX
  5
31D
  8
0
  6
CONTINUOUS
 62
     7
 10
146.2207829635
 20
102.6654719115
 30
0.0
  0
SEQEND
  5
30C
  8
0
  6
CONTINUOUS
 62
     7
  0
ARC
  5
CE
  8
0
  6
CONTINUOUS
 62
     7
 10
150.0586220622
 20
110.95846493
 30
0.0
 40
7.751179632768276
 50
250.2821845315
 51
283.1991078888
  0
POLYLINE
  5
CF
  8
0
  6
CONTINUOUS
 62
     7
 66
     1
 10
0.0
 20
0.0
 30
0.0
  0
VERTEX
  5
31F
  8
0
  6
CONTINUOUS
 62
     7
 10
146.0769198543
 20
102.3102412357
 30
0.0
  0
VERTEX
  5
320
  8
0
  6
CONTINUOUS
 62
     7
 10
145.5406469169
 20
102.6687209587
 30
0.0
  0
VERTEX
  5
321
  8
0
  6
CONTINUOUS
 62
     7
 10
145.100503146
 20
103.0684562547
 30
0.0
  0
VERTEX
  5
322
  8
0
  6
CONTINUOUS
 62
     7
 10
144.7658694421
 20
103.5009274599
 30
0.0
  0
VERTEX
  5
323
  8
0
  6
CONTINUOUS
 62
     7
 10
144.5438779415
 20
103.9569172013
 30
0.0
  0
VERTEX
  5
324
  8
0
  6
CONTINUOUS
 62
     7
 10
144.4392600077
 20
104.4267068493
 30
0.0
  0
VERTEX
  5
325
  8
0
  6
CONTINUOUS
 62
     7
 10
144.4542453902
 20
104.9002836532
 30
0.0
  0
VERTEX
  5
326
  8
0
  6
CONTINUOUS
 62
     7
 10
144.4755052083
 20
105.0126913654
 30
0.0
  0
SEQEND
  5
31E
  8
0
  6
CONTINUOUS
 62
     7
  0
POLYLINE
  5
D0
  8
0
  6
CONTINUOUS
 62
     7
 66
     1
 10
0.0
 20
0.0
 30
0.0
  0
VERTEX
  5
328
  8
0
  6
CONTINUOUS
 62
     7
 10
155.6263841816
 20
105.0126913654
 30
0.0
  0
VERTEX
  5
329
  8
0
  6
CONTINUOUS
 62
     7
 10
155.6701270756
 20
104.5451405569
 30
0.0
  0
VERTEX
  5
32A
  8
0
  6
CONTINUOUS
 62
     7
 10
155.5953001115
 20
104.0734585951
 30
0.0
  0
VERTEX
  5
32B
  8
0
  6
CONTINUOUS
 62
     7
 10
155.4023048374
 20
103.6130926624
 30
0.0
  0
VERTEX
  5
32C
  8
0
  6
CONTINUOUS
 62
     7
 10
155.0952546128
 20
103.1738546594
 30
0.0
  0
VERTEX
  5
32D
  8
0
  6
CONTINUOUS
 62
     7
 10
154.6806936799
 20
102.7651061816
 30
0.0
  0
VERTEX
  5
32E
  8
0
  6
CONTINUOUS
 62
     7
 10
154.1674576853
 20
102.395558993
 30
0.0
  0
VERTEX
  5
32F
  8
0
  6
CONTINUOUS
 62
     7
 10
153.5664853632
 20
102.0730893506
 30
0.0
  0
VERTEX
  5
330
  8
0
  6
CONTINUOUS
 62
     7
 10
152.8905853953
 20
101.8045701347
 30
0.0
  0
VERTEX
  5
331
  8
0
  6
CONTINUOUS
 62
     7
 10
152.1541634159
 20
101.5957243663
 30
0.0
  0
VERTEX
  5
332
  8
0
  6
CONTINUOUS
 62
     7
 10
151.372914981
 20
101.4510032305
 30
0.0
  0
VERTEX
  5
333
  8
0
  6
CONTINUOUS
 62
     7
 10
150.5634910445
 20
101.3734912068
 30
0.0
  0
VERTEX
  5
334
  8
0
  6
CONTINUOUS
 62
     7
 10
149.7431430725
 20
101.3648403296
 30
0.0
  0
VERTEX
  5
335
  8
0
  6
CONTINUOUS
 62
     7
 10
148.9293553577
 20
101.4252349773
 30
0.0
  0
VERTEX
  5
336
  8
0
  6
CONTINUOUS
 62
     7
 10
148.1394723723
 20
101.5533879428
 30
0.0
  0
VERTEX
  5
337
  8
0
  6
CONTINUOUS
 62
     7
 10
147.3903291009
 20
101.7465678681
 30
0.0
  0
VERTEX
  5
338
  8
0
  6
CONTINUOUS
 62
     7
 10
146.6978922317
 20
102.0006574586
 30
0.0
  0
VERTEX
  5
339
  8
0
  6
CONTINUOUS
 62
     7
 10
146.0769198543
 20
102.3102412357
 30
0.0
  0
SEQEND
  5
327
  8
0
  6
CONTINUOUS
 62
     7
  0
POLYLINE
  5
D1
  8
0
  6
CONTINUOUS
 62
     7
 66
     1
 10
0.0
 20
0.0
 30
0.0
  0
VERTEX
  5
33B
  8
0
  6
CONTINUOUS
 62
     7
 10
144.3847095334
 20
102.4673245106
 30
0.0
  0
VERTEX
  5
33C
  8
0
  6
CONTINUOUS
 62
     7
 10
144.4305315604
 20
102.0098400142
 30
0.0
  0
VERTEX
  5
33D
  8
0
  6
CONTINUOUS
 62
     7
 10
144.5956292303
 20
101.5418681679
 30
0.0
  0
VERTEX
  5
33E
  8
0
  6
CONTINUOUS
 62
     7
 10
144.8769974781
 20
101.092760406
 30
0.0
  0
VERTEX
  5
33F
  8
0
  6
CONTINUOUS
 62
     7
 10
145.2686394281
 20
100.6720886809
 30
0.0
  0
VERTEX
  5
340
  8
0
  6
CONTINUOUS
 62
     7
 10
145.762207912
 20
100.2888188799
 30
0.0
  0
VERTEX
  5
341
  8
0
  6
CONTINUOUS
 62
     7
 10
146.3471833746
 20
99.95111973349999
 30
0.0
  0
VERTEX
  5
342
  8
0
  6
CONTINUOUS
 62
     7
 10
147.0110980794
 20
99.66618871270001
 30
0.0
  0
VERTEX
  5
343
  8
0
  6
CONTINUOUS
 62
     7
 10
147.7398018372
 20
99.44009862740001
 30
0.0
  0
VERTEX
  5
344
  8
0
  6
CONTINUOUS
 62
     7
 10
148.5177635926
 20
99.2776681954
 30
0.0
  0
VERTEX
  5
345
  8
0
  6
CONTINUOUS
 62
     7
 10
149.3284024413
 20
99.18235933930001
 30
0.0
  0
VERTEX
  5
346
  8
0
  6
CONTINUOUS
 62
     7
 10
150.1544410236
 20
99.1562034018
 30
0.0
  0
VERTEX
  5
347
  8
0
  6
CONTINUOUS
 62
     7
 10
150.9782737615
 20
99.19975785139999
 30
0.0
  0
VERTEX
  5
348
  8
0
  6
CONTINUOUS
 62
     7
 10
151.7823420902
 20
99.31209440070001
 30
0.0
  0
VERTEX
  5
349
  8
0
  6
CONTINUOUS
 62
     7
 10
152.5495086895
 20
99.490818791
 30
0.0
  0
VERTEX
  5
34A
  8
0
  6
CONTINUOUS
 62
     7
 10
153.2634227351
 20
99.7321218223
 30
0.0
  0
VERTEX
  5
34B
  8
0
  6
CONTINUOUS
 62
     7
 10
153.9088683886
 20
100.0308605395
 30
0.0
  0
VERTEX
  5
34C
  8
0
  6
CONTINUOUS
 62
     7
 10
154.4720890965
 20
100.3806678454
 30
0.0
  0
VERTEX
  5
34D
  8
0
  6
CONTINUOUS
 62
     7
 10
154.9410807872
 20
100.7740882046
 30
0.0
  0
VERTEX
  5
34E
  8
0
  6
CONTINUOUS
 62
     7
 10
155.3058477172
 20
101.2027365452
 30
0.0
  0
VERTEX
  5
34F
  8
0
  6
CONTINUOUS
 62
     7
 10
155.5586155125
 20
101.657476972
 30
0.0
  0
VERTEX
  5
350
  8
0
  6
CONTINUOUS
 62
     7
 10
155.6939968665
 20
102.1286174824
 30
0.0
  0
VERTEX
  5
351
  8
0
  6
CONTINUOUS
 62
     7
 10
155.7171798565
 20
102.4673245106
 30
0.0
  0
SEQEND
  5
33A
  8
0
  6
CONTINUOUS
 62
     7
  0
ARC
  5
D2
  8
0
  6
CONTINUOUS
 62
     7
 10
156.1418636557
 20
103.3794309091
 30
0.0
 40
0.9023383214575087
 50
290.7834207995
 51
69.21657920049999
  0
LINE
  5
D3
  8
0
  6
CONTINUOUS
 62
     7
 10
156.3046658047
 20
102.4449554381
 30
0.0
 11
156.4620461777
 21
102.5358091936
 31
0.0
  0
ARC
  5
D4
  8
0
  6
CONTINUOUS
 62
     7
 10
156.6552855688
 20
101.7324542164
 30
0.0
 40
0.7940983628288474
 50
116.2016637115
 51
162.5408912084
  0
POLYLINE
  5
D5
  8
0
  6
CONTINUOUS
 62
     7
 66
     1
 10
0.0
 20
0.0
 30
0.0
  0
VERTEX
  5
353
  8
0
  6
CONTINUOUS
 62
     7
 10
150.8412804965
 20
99.05165421869999
 30
0.0
  0
VERTEX
  5
354
  8
0
  6
CONTINUOUS
 62
     7
 10
151.675967386
 20
99.152695045
 30
0.0
  0
VERTEX
  5
355
  8
0
  6
CONTINUOUS
 62
     7
 10
152.4767002835
 20
99.3221498013
 30
0.0
  0
VERTEX
  5
356
  8
0
  6
CONTINUOUS
 62
     7
 10
153.2267482976
 20
99.55647781979999
 30
0.0
  0
VERTEX
  5
357
  8
0
  6
CONTINUOUS
 62
     7
 10
153.9104395707
 20
99.8507829401
 30
0.0
  0
VERTEX
  5
358
  8
0
  6
CONTINUOUS
 62
     7
 10
154.5134887343
 20
100.198915812
 30
0.0
  0
VERTEX
  5
359
  8
0
  6
CONTINUOUS
 62
     7
 10
155.0232953943
 20
100.5936023828
 30
0.0
  0
VERTEX
  5
35A
  8
0
  6
CONTINUOUS
 62
     7
 10
155.4292074093
 20
101.0265958849
 30
0.0
  0
VERTEX
  5
35B
  8
0
  6
CONTINUOUS
 62
     7
 10
155.722743462
 20
101.4888491473
 30
0.0
  0
VERTEX
  5
35C
  8
0
  6
CONTINUOUS
 62
     7
 10
155.8693177407
 20
101.8623523149
 30
0.0
  0
SEQEND
  5
352
  8
0
  6
CONTINUOUS
 62
     7
  0
ARC
  5
D6
  8
0
  6
CONTINUOUS
 62
     7
 10
150.9597314785
 20
97.08336512290001
 30
0.0
 40
1.971850045000089
 50
93.443887476
 51
118.4696749733
  0
LINE
  5
D7
  8
0
  6
CONTINUOUS
 62
     7
 10
149.8623828866
 20
98.72590467169999
 30
0.0
 11
150.0197632597
 21
98.8167584272
 31
0.0
  0
ARC
  5
D8
  8
0
  6
CONTINUOUS
 62
     7
 10
148.4010288722
 20
101.5463075806
 30
0.0
 40
3.176511943017554
 50
242.6096722366
 51
297.3903277634
  0
LINE
  5
D9
  8
0
  6
CONTINUOUS
 62
     7
 10
143.6398432122
 20
100.6308569327
 30
0.0
 11
146.9396748577
 21
98.72590467169999
 31
0.0
  0
ARC
  5
DA
  8
0
  6
CONTINUOUS
 62
     7
 10
143.9600257342
 20
101.4744786482
 30
0.0
 40
0.9023383214575119
 50
110.7834207995
 51
249.2165792005
  0
LINE
  5
DB
  8
0
  6
CONTINUOUS
 62
     7
 10
143.7972235852
 20
102.4089541192
 30
0.0
 11
143.6398432122
 21
102.3181003638
 31
0.0
  0
ARC
  5
DC
  8
0
  6
CONTINUOUS
 62
     7
 10
143.4466038211
 20
103.1214553409
 30
0.0
 40
0.7940983628289994
 50
296.2016637115
 51
342.5408912084
  0
ARC
  5
DD
  8
0
  6
CONTINUOUS
 62
     7
 10
149.7795719546
 20
98.59644409969999
 30
0.0
 40
0.1536804807573226
 50
2.6054784857
 51
57.3945216599
  0
ARC
  5
DE
  8
0
  6
CONTINUOUS
 62
     7
 10
148.4010288722
 20
101.5603042024
 30
0.0
 40
3.33021413380891
 50
242.6096722366
 51
297.3903277634
  0
ARC
  5
DF
  8
0
  6
CONTINUOUS
 62
     7
 10
147.0224857897
 20
98.59644409969999
 30
0.0
 40
0.1536804807574382
 50
122.6054783401
 51
177.3945215143
  0
ARC
  5
E0
  8
0
  6
CONTINUOUS
 62
     7
 10
148.4010288722
 20
100.1449667951
 30
0.0
 40
3.330214133808998
 50
242.6096722366
 51
297.3903277634
  0
LINE
  5
E1
  8
0
  6
CONTINUOUS
 62
     7
 10
146.8689641796
 20
97.18809277770001
 30
0.0
 11
146.8689641796
 21
98.60343018499999
 31
0.0
  0
LINE
  5
E2
  8
0
  6
CONTINUOUS
 62
     7
 10
149.9330935647
 20
98.60343018499999
 30
0.0
 11
149.9330935647
 21
97.18809277770001
 31
0.0
  0
ARC
  5
E3
  8
0
  6
CONTINUOUS
 62
     7
 10
155.8969385609
 20
101.8701552564
 30
0.0
 40
0.1005518153619124
 50
6.3729486735
 51
89.5260747577
  0
POLYLINE
  5
E4
  8
0
  6
CONTINUOUS
 62
     7
 66
     1
 10
0.0
 20
0.0
 30
0.0
  0
VERTEX
  5
35E
  8
0
  6
CONTINUOUS
 62
     7
 10
155.9968690099
 20
101.8813164805
 30
0.0
  0
VERTEX
  5
35F
  8
0
  6
CONTINUOUS
 62
     7
 10
155.8188756445
 20
101.3912949706
 30
0.0
  0
VERTEX
  5
360
  8
0
  6
CONTINUOUS
 62
     7
 10
155.5203644044
 20
100.9212069072
 30
0.0
  0
VERTEX
  5
361
  8
0
  6
CONTINUOUS
 62
     7
 10
155.1075725248
 20
100.4808745322
 30
0.0
  0
VERTEX
  5
362
  8
0
  6
CONTINUOUS
 62
     7
 10
154.589125074
 20
100.0794983585
 30
0.0
  0
VERTEX
  5
363
  8
0
  6
CONTINUOUS
 62
     7
 10
153.9758547381
 20
99.72546492940001
 30
0.0
  0
VERTEX
  5
364
  8
0
  6
CONTINUOUS
 62
     7
 10
153.2805754773
 20
99.42617158669999
 30
0.0
  0
VERTEX
  5
365
  8
0
  6
CONTINUOUS
 62
     7
 10
152.517814785
 20
99.1878719069
 30
0.0
  0
VERTEX
  5
366
  8
0
  6
CONTINUOUS
 62
     7
 10
151.7035101434
 20
99.0155450362
 30
0.0
  0
VERTEX
  5
367
  8
0
  6
CONTINUOUS
 62
     7
 10
150.8546760186
 20
98.91279165340001
 30
0.0
  0
SEQEND
  5
35D
  8
0
  6
CONTINUOUS
 62
     7
  0
ARC
  5
E5
  8
0
  6
CONTINUOUS
 62
     7
 10
150.1287310852
 20
98.91284000810001
 30
0.0
 40
0.7259449349318509
 50
360.0
 51
11.0239117737
  0
LINE
  5
E6
  8
0
  6
CONTINUOUS
 62
     7
 10
151.3610776464
 20
97.82199944830001
 30
0.0
 11
151.3610776464
 21
97.5498191777
 31
0.0
  0
LINE
  5
E7
  8
0
  6
CONTINUOUS
 62
     7
 10
150.8546760186
 20
98.91279165340001
 30
0.0
 11
150.8546760186
 21
97.49745424619999
 31
0.0
  0
LINE
  5
E8
  8
0
  6
CONTINUOUS
 62
     7
 10
155.9968690099
 20
100.4659790733
 30
0.0
 11
155.9968690099
 21
101.8813164805
 31
0.0
  0
LINE
  5
E9
  8
0
  6
CONTINUOUS
 62
     7
 10
155.9061604595
 20
100.4458199068
 30
0.0
 11
155.9061604595
 21
100.1736396361
 31
0.0
  0
POLYLINE
  5
EA
  8
0
  6
CONTINUOUS
 62
     7
 66
     1
 10
0.0
 20
0.0
 30
0.0
  0
VERTEX
  5
369
  8
0
  6
CONTINUOUS
 62
     7
 10
155.9061604595
 20
100.4458199068
 30
0.0
  0
VERTEX
  5
36A
  8
0
  6
CONTINUOUS
 62
     7
 10
155.6632628519
 20
99.9772749446
 30
0.0
  0
VERTEX
  5
36B
  8
0
  6
CONTINUOUS
 62
     7
 10
155.3084704091
 20
99.5331506351
 30
0.0
  0
VERTEX
  5
36C
  8
0
  6
CONTINUOUS
 62
     7
 10
154.8488567574
 20
99.12230164659999
 30
0.0
  0
VERTEX
  5
36D
  8
0
  6
CONTINUOUS
 62
     7
 10
154.2935853821
 20
98.75291922540001
 30
0.0
  0
VERTEX
  5
36E
  8
0
  6
CONTINUOUS
 62
     7
 10
153.653726931
 20
98.43236788350001
 30
0.0
  0
VERTEX
  5
36F
  8
0
  6
CONTINUOUS
 62
     7
 10
152.9420384958
 20
98.1670385701
 30
0.0
  0
VERTEX
  5
370
  8
0
  6
CONTINUOUS
 62
     7
 10
152.1727092684
 20
97.9622212525
 30
0.0
  0
VERTEX
  5
371
  8
0
  6
CONTINUOUS
 62
     7
 10
151.3610776464
 20
97.82199944830001
 30
0.0
  0
SEQEND
  5
368
  8
0
  6
CONTINUOUS
 62
     7
  0
ARC
  5
EB
  8
0
  6
CONTINUOUS
 62
     7
 10
150.0725988273
 20
107.5354223037
 30
0.0
 40
10.0683885233464
 50
274.4550233579
 51
277.3524578077
  0
ARC
  5
EC
  8
0
  6
CONTINUOUS
 62
     7
 10
153.8641950161
 20
100.9674734119
 30
0.0
 40
2.190843430171144
 50
338.7559267474
 51
346.7674050817
  0
ARC
  5
ED
  8
0
  6
CONTINUOUS
 62
     7
 10
150.9648629785
 20
97.0818250527
 30
0.0
 40
1.834279111628649
 50
93.443887476
 51
118.4696749733
  0
ARC
  5
EE
  8
0
  6
CONTINUOUS
 62
     7
 10
149.9369523276
 20
98.6872978552
 30
0.0
 40
0.1536804807572678
 50
2.6054784857
 51
57.39452166
  0
LINE
  5
EF
  8
0
  6
CONTINUOUS
 62
     7
 10
150.0904739378
 20
98.6942839404
 30
0.0
 11
149.9330935647
 21
98.60343018499999
 31
0.0
  0
LINE
  5
F0
  8
0
  6
CONTINUOUS
 62
     7
 10
146.8689641796
 20
98.60343018499999
 30
0.0
 11
143.5691325341
 21
100.5083824459
 31
0.0
  0
ARC
  5
F1
  8
0
  6
CONTINUOUS
 62
     7
 10
143.7226541442
 20
100.5013963606
 30
0.0
 40
0.1536804807573517
 50
122.60547834
 51
177.3945215143
  0
LINE
  5
F2
  8
0
  6
CONTINUOUS
 62
     7
 10
150.0904739378
 20
97.2789465332
 30
0.0
 11
150.0904739378
 21
98.6942839404
 31
0.0
  0
ARC
  5
F3
  8
0
  6
CONTINUOUS
 62
     7
 10
150.9648629785
 20
95.6664876454
 30
0.0
 40
1.834279111628308
 50
93.443887476
 51
118.4696749733
  0
LINE
  5
F4
  8
0
  6
CONTINUOUS
 62
     7
 10
149.9330935647
 20
97.18809277770001
 30
0.0
 11
150.0904739378
 21
97.2789465332
 31
0.0
  0
ARC
  5
F5
  8
0
  6
CONTINUOUS
 62
     7
 10
145.3050731479
 20
97.40103419819999
 30
0.0
 40
1.152603605679089
 50
2.6054784857
 51
57.39452166
  0
LINE
  5
F6
  8
0
  6
CONTINUOUS
 62
     7
 10
145.4783208433
 20
98.63051772359999
 30
0.0
 11
145.926155138
 21
98.3719884882
 31
0.0
  0
LINE
  5
F7
  8
0
  6
CONTINUOUS
 62
     7
 10
144.5119415756
 20
99.1883966
 30
0.0
 11
144.9597758704
 21
98.9298673646
 31
0.0
  0
LINE
  5
F8
  8
0
  6
CONTINUOUS
 62
     7
 10
143.5691325341
 20
99.0930450386
 30
0.0
 11
143.7569996275
 21
98.984591674
 31
0.0
  0
LINE
  5
F9
  8
0
  6
CONTINUOUS
 62
     7
 10
143.5691325341
 20
100.5083824459
 30
0.0
 11
143.5691325341
 21
99.0930450386
 31
0.0
  0
LINE
  5
FA
  8
0
  6
CONTINUOUS
 62
     7
 10
146.4681422227
 20
97.41948236810001
 30
0.0
 11
146.8689641796
 21
97.18809277770001
 31
0.0
  0
LINE
  5
FB
  8
0
  6
CONTINUOUS
 62
     7
 10
145.4783208433
 20
98.63051772359999
 30
0.0
 11
145.4990343946
 21
98.6016469875
 31
0.0
  0
LINE
  5
FC
  8
0
  6
CONTINUOUS
 62
     7
 10
151.3610776464
 20
97.5498191777
 30
0.0
 11
152.020114529
 21
97.9302730718
 31
0.0
  0
LINE
  5
FD
  8
0
  6
CONTINUOUS
 62
     7
 10
155.7186047205
 20
100.0653660126
 30
0.0
 11
155.9061604595
 21
100.1736396361
 31
0.0
  0
LINE
  5
FE
  8
0
  6
CONTINUOUS
 62
     7
 10
144.9597758704
 20
98.9298673646
 30
0.0
 11
144.957808921
 21
98.91492166730001
 31
0.0
  0
ARC
  5
FF
  8
0
  6
CONTINUOUS
 62
     7
 10
143.9048077588
 20
101.392824567
 30
0.0
 40
0.9459998531409318
 50
110.7834207995
 51
249.2165792005
  0
ARC
  5
100
  8
0
  6
CONTINUOUS
 62
     7
 10
143.6167010896
 20
102.2833230911
 30
0.0
 40
0.0479525545456037
 50
124.056350761
 51
187.2558296323
  0
ARC
  5
101
  8
0
  6
CONTINUOUS
 62
     7
 10
144.0188541954
 20
100.085617643
 30
0.0
 40
1.089701770069809
 50
185.6947992512
 51
245.6253417064
  0
ARC
  5
102
  8
0
  6
CONTINUOUS
 62
     7
 10
156.2218548726
 20
102.3154948661
 30
0.0
 40
0.1536804807572132
 50
2.6054784857
 51
57.39452166
  0
ARC
  5
103
  8
0
  6
CONTINUOUS
 62
     7
 10
156.7015344029
 20
101.6596891172
 30
0.0
 40
0.7386961514689219
 50
116.2016637115
 51
162.5408912084
  0
LINE
  5
104
  8
0
  6
CONTINUOUS
 62
     7
 10
156.3753764828
 20
102.3224809513
 30
0.0
 11
156.3753764828
 21
100.907143544
 31
0.0
  0
ARC
  5
105
  8
0
  6
CONTINUOUS
 62
     7
 10
156.7015344029
 20
100.2443517099
 30
0.0
 40
0.7386961514689219
 50
116.2016637115
 51
162.5408912084
  0
ARC
  5
106
  8
0
  6
CONTINUOUS
 62
     7
 10
156.3792352457
 20
102.4063486216
 30
0.0
 40
0.1536804807572678
 50
2.6054784857
 51
57.39452166
  0
LINE
  5
107
  8
0
  6
CONTINUOUS
 62
     7
 10
156.5327568558
 20
102.4133347068
 30
0.0
 11
156.3753764828
 21
102.3224809513
 31
0.0
  0
ARC
  5
108
  8
0
  6
CONTINUOUS
 62
     7
 10
143.400354987
 20
103.0309122777
 30
0.0
 40
0.7386961514688319
 50
296.2016637115
 51
342.5408912084
  0
ARC
  5
109
  8
0
  6
CONTINUOUS
 62
     7
 10
144.1884899794
 20
102.8007718532
 30
0.0
 40
0.0839025997530091
 50
79.2643964976
 51
174.1765417021
  0
LINE
  5
10A
  8
0
  6
CONTINUOUS
 62
     7
 10
156.5327568558
 20
100.9979972995
 30
0.0
 11
156.5327568558
 21
102.4133347068
 31
0.0
  0
LINE
  5
10B
  8
0
  6
CONTINUOUS
 62
     7
 10
156.3753764828
 20
100.907143544
 30
0.0
 11
156.5327568558
 21
100.9979972995
 31
0.0
  0
ARC
  5
10C
  8
0
  6
CONTINUOUS
 62
     7
 10
156.4851883003
 20
104.188275352
 30
0.0
 40
0.0479525545921778
 50
352.744170402
 51
55.94364920480001
  0
ARC
  5
10D
  8
0
  6
CONTINUOUS
 62
     7
 10
156.1970816311
 20
103.2977768279
 30
0.0
 40
0.9459998531409218
 50
290.7834207995
 51
69.21657920049999
  0
ARC
  5
10E
  8
0
  6
CONTINUOUS
 62
     7
 10
156.0830351945
 20
101.9905699039
 30
0.0
 40
1.089701770069839
 50
294.3746582936
 51
354.3052007488
  0
POLYLINE
  5
10F
  8
0
  6
CONTINUOUS
 62
     7
 66
     1
 10
0.0
 20
0.0
 30
0.0
  0
VERTEX
  5
373
  8
0
  6
CONTINUOUS
 62
     7
 10
144.10502038
 20
102.8092849144
 30
0.0
  0
VERTEX
  5
374
  8
0
  6
CONTINUOUS
 62
     7
 10
144.2830137454
 20
103.2993064243
 30
0.0
  0
VERTEX
  5
375
  8
0
  6
CONTINUOUS
 62
     7
 10
144.4072381435
 20
103.5211234444
 30
0.0
  0
SEQEND
  5
372
  8
0
  6
CONTINUOUS
 62
     7
  0
POLYLINE
  5
110
  8
0
  6
CONTINUOUS
 62
     7
 66
     1
 10
0.0
 20
0.0
 30
0.0
  0
VERTEX
  5
377
  8
0
  6
CONTINUOUS
 62
     7
 10
84.3055667939
 20
63.8135645215
 30
0.0
  0
VERTEX
  5
378
  8
0
  6
CONTINUOUS
 62
     7
 10
84.30497879559999
 20
63.8127862189
 30
0.0
  0
VERTEX
  5
379
  8
0
  6
CONTINUOUS
 62
     7
 10
83.9266893221
 20
63.3995875651
 30
0.0
  0
VERTEX
  5
37A
  8
0
  6
CONTINUOUS
 62
     7
 10
83.4459467433
 20
63.0235521268
 30
0.0
  0
VERTEX
  5
37B
  8
0
  6
CONTINUOUS
 62
     7
 10
82.873490054
 20
62.6930799143
 30
0.0
  0
VERTEX
  5
37C
  8
0
  6
CONTINUOUS
 62
     7
 10
82.2221069907
 20
62.4155531309
 30
0.0
  0
VERTEX
  5
37D
  8
0
  6
CONTINUOUS
 62
     7
 10
81.5063483747
 20
62.1971712663
 30
0.0
  0
VERTEX
  5
37E
  8
0
  6
CONTINUOUS
 62
     7
 10
80.7422030706
 20
62.0428126104
 30
0.0
  0
VERTEX
  5
37F
  8
0
  6
CONTINUOUS
 62
     7
 10
79.94674082180001
 20
61.9559252805
 30
0.0
  0
VERTEX
  5
380
  8
0
  6
CONTINUOUS
 62
     7
 10
79.13773094059999
 20
61.9384501961
 30
0.0
  0
VERTEX
  5
381
  8
0
  6
CONTINUOUS
 62
     7
 10
78.3332453708
 20
61.9907777216
 30
0.0
  0
VERTEX
  5
382
  8
0
  6
CONTINUOUS
 62
     7
 10
77.5512549907
 20
62.1117389466
 30
0.0
  0
VERTEX
  5
383
  8
0
  6
CONTINUOUS
 62
     7
 10
76.8092281731
 20
62.2986317972
 30
0.0
  0
VERTEX
  5
384
  8
0
  6
CONTINUOUS
 62
     7
 10
76.1237405711
 20
62.5472813959
 30
0.0
  0
VERTEX
  5
385
  8
0
  6
CONTINUOUS
 62
     7
 10
75.5101048449
 20
62.8521333217
 30
0.0
  0
VERTEX
  5
386
  8
0
  6
CONTINUOUS
 62
     7
 10
74.9820286026
 20
63.2063776861
 30
0.0
  0
VERTEX
  5
387
  8
0
  6
CONTINUOUS
 62
     7
 10
74.5513081948
 20
63.6021012556
 30
0.0
  0
VERTEX
  5
388
  8
0
  6
CONTINUOUS
 62
     7
 10
74.3749663589
 20
63.8135645213
 30
0.0
  0
SEQEND
  5
376
  8
0
  6
CONTINUOUS
 62
     7
  0
POLYLINE
  5
111
  8
0
  6
CONTINUOUS
 62
     7
 66
     1
 10
0.0
 20
0.0
 30
0.0
  0
VERTEX
  5
38A
  8
0
  6
CONTINUOUS
 62
     7
 10
74.7223925811
 20
63.6238535992
 30
0.0
  0
VERTEX
  5
38B
  8
0
  6
CONTINUOUS
 62
     7
 10
75.0624883805
 20
63.3223122769
 30
0.0
  0
VERTEX
  5
38C
  8
0
  6
CONTINUOUS
 62
     7
 10
75.580815523
 20
62.9746078084
 30
0.0
  0
VERTEX
  5
38D
  8
0
  6
CONTINUOUS
 62
     7
 10
76.18312258970001
 20
62.6753839183
 30
0.0
  0
VERTEX
  5
38E
  8
0
  6
CONTINUOUS
 62
     7
 10
76.855955036
 20
62.4313247737
 30
0.0
  0
VERTEX
  5
38F
  8
0
  6
CONTINUOUS
 62
     7
 10
77.58428289690001
 20
62.2478822526
 30
0.0
  0
VERTEX
  5
390
  8
0
  6
CONTINUOUS
 62
     7
 10
78.3518365315
 20
62.1291541579
 30
0.0
  0
VERTEX
  5
391
  8
0
  6
CONTINUOUS
 62
     7
 10
79.14147006010001
 20
62.077792679
 30
0.0
  0
VERTEX
  5
392
  8
0
  6
CONTINUOUS
 62
     7
 10
79.93554437420001
 20
62.0949451465
 30
0.0
  0
VERTEX
  5
393
  8
0
  6
CONTINUOUS
 62
     7
 10
80.7163211661
 20
62.1802284026
 30
0.0
  0
VERTEX
  5
394
  8
0
  6
CONTINUOUS
 62
     7
 10
81.4663591723
 20
62.3317373602
 30
0.0
  0
VERTEX
  5
395
  8
0
  6
CONTINUOUS
 62
     7
 10
82.16890378310001
 20
62.5460875597
 30
0.0
  0
VERTEX
  5
396
  8
0
  6
CONTINUOUS
 62
     7
 10
82.8082613129
 20
62.8184907717
 30
0.0
  0
VERTEX
  5
397
  8
0
  6
CONTINUOUS
 62
     7
 10
83.370149571
 20
63.1428619587
 30
0.0
  0
VERTEX
  5
398
  8
0
  6
CONTINUOUS
 62
     7
 10
83.8420169022
 20
63.5119552043
 30
0.0
  0
VERTEX
  5
399
  8
0
  6
CONTINUOUS
 62
     7
 10
83.9581405717
 20
63.6238535995
 30
0.0
  0
SEQEND
  5
389
  8
0
  6
CONTINUOUS
 62
     7
  0
POLYLINE
  5
112
  8
0
  6
CONTINUOUS
 62
     7
 66
     1
 10
0.0
 20
0.0
 30
0.0
  0
VERTEX
  5
39B
  8
0
  6
CONTINUOUS
 62
     7
 10
75.5101048449
 20
61.8450663203
 30
0.0
  0
VERTEX
  5
39C
  8
0
  6
CONTINUOUS
 62
     7
 10
74.9820286026
 20
62.1993106848
 30
0.0
  0
VERTEX
  5
39D
  8
0
  6
CONTINUOUS
 62
     7
 10
74.5513081948
 20
62.5950342542
 30
0.0
  0
VERTEX
  5
39E
  8
0
  6
CONTINUOUS
 62
     7
 10
74.2275652038
 20
63.023397218
 30
0.0
  0
VERTEX
  5
39F
  8
0
  6
CONTINUOUS
 62
     7
 10
74.0180315129
 20
63.4748306555
 30
0.0
  0
VERTEX
  5
3A0
  8
0
  6
CONTINUOUS
 62
     7
 10
73.92738775869999
 20
63.9392502895
 30
0.0
  0
VERTEX
  5
3A1
  8
0
  6
CONTINUOUS
 62
     7
 10
73.9235999096
 20
64.0561716232
 30
0.0
  0
SEQEND
  5
39A
  8
0
  6
CONTINUOUS
 62
     7
  0
POLYLINE
  5
113
  8
0
  6
CONTINUOUS
 62
     7
 66
     1
 10
0.0
 20
0.0
 30
0.0
  0
VERTEX
  5
3A3
  8
0
  6
CONTINUOUS
 62
     7
 10
84.75693324300001
 20
64.0561716232
 30
0.0
  0
VERTEX
  5
3A4
  8
0
  6
CONTINUOUS
 62
     7
 10
84.72287437990001
 20
63.7060614935
 30
0.0
  0
VERTEX
  5
3A5
  8
0
  6
CONTINUOUS
 62
     7
 10
84.572364802
 20
63.2468509119
 30
0.0
  0
VERTEX
  5
3A6
  8
0
  6
CONTINUOUS
 62
     7
 10
84.30497879559999
 20
62.8057192176
 30
0.0
  0
VERTEX
  5
3A7
  8
0
  6
CONTINUOUS
 62
     7
 10
83.9266893221
 20
62.3925205637
 30
0.0
  0
VERTEX
  5
3A8
  8
0
  6
CONTINUOUS
 62
     7
 10
83.4459467433
 20
62.0164851254
 30
0.0
  0
VERTEX
  5
3A9
  8
0
  6
CONTINUOUS
 62
     7
 10
82.873490054
 20
61.686012913
 30
0.0
  0
VERTEX
  5
3AA
  8
0
  6
CONTINUOUS
 62
     7
 10
82.2221069907
 20
61.4084861296
 30
0.0
  0
VERTEX
  5
3AB
  8
0
  6
CONTINUOUS
 62
     7
 10
81.5063483747
 20
61.1901042649
 30
0.0
  0
VERTEX
  5
3AC
  8
0
  6
CONTINUOUS
 62
     7
 10
80.7422030706
 20
61.035745609
 30
0.0
  0
VERTEX
  5
3AD
  8
0
  6
CONTINUOUS
 62
     7
 10
79.94674082180001
 20
60.9488582792
 30
0.0
  0
VERTEX
  5
3AE
  8
0
  6
CONTINUOUS
 62
     7
 10
79.13773094059999
 20
60.9313831948
 30
0.0
  0
VERTEX
  5
3AF
  8
0
  6
CONTINUOUS
 62
     7
 10
78.3332453708
 20
60.9837107203
 30
0.0
  0
VERTEX
  5
3B0
  8
0
  6
CONTINUOUS
 62
     7
 10
77.5512549907
 20
61.1046719453
 30
0.0
  0
VERTEX
  5
3B1
  8
0
  6
CONTINUOUS
 62
     7
 10
76.8092281731
 20
61.2915647959
 30
0.0
  0
VERTEX
  5
3B2
  8
0
  6
CONTINUOUS
 62
     7
 10
76.1237405711
 20
61.5402143946
 30
0.0
  0
VERTEX
  5
3B3
  8
0
  6
CONTINUOUS
 62
     7
 10
75.5101048449
 20
61.8450663203
 30
0.0
  0
SEQEND
  5
3A2
  8
0
  6
CONTINUOUS
 62
     7
  0
ARC
  5
114
  8
0
  6
CONTINUOUS
 62
     7
 10
79.3479439436
 20
70.13805933810001
 30
0.0
 40
7.75117963200518
 50
250.2821845092
 51
283.1991078899
  0
POLYLINE
  5
115
  8
0
  6
CONTINUOUS
 62
     7
 66
     1
 10
0.0
 20
0.0
 30
0.0
  0
VERTEX
  5
3B5
  8
0
  6
CONTINUOUS
 62
     7
 10
75.3662417356
 20
61.4898356445
 30
0.0
  0
VERTEX
  5
3B6
  8
0
  6
CONTINUOUS
 62
     7
 10
74.8299687982
 20
61.8483153675
 30
0.0
  0
VERTEX
  5
3B7
  8
0
  6
CONTINUOUS
 62
     7
 10
74.38982502739999
 20
62.2480506636
 30
0.0
  0
VERTEX
  5
3B8
  8
0
  6
CONTINUOUS
 62
     7
 10
74.0551913234
 20
62.6805218687
 30
0.0
  0
VERTEX
  5
3B9
  8
0
  6
CONTINUOUS
 62
     7
 10
73.8331998228
 20
63.1365116102
 30
0.0
  0
VERTEX
  5
3BA
  8
0
  6
CONTINUOUS
 62
     7
 10
73.728581889
 20
63.6063012582
 30
0.0
  0
VERTEX
  5
3BB
  8
0
  6
CONTINUOUS
 62
     7
 10
73.7435672715
 20
64.07987806209999
 30
0.0
  0
VERTEX
  5
3BC
  8
0
  6
CONTINUOUS
 62
     7
 10
73.7648270896
 20
64.1922857743
 30
0.0
  0
SEQEND
  5
3B4
  8
0
  6
CONTINUOUS
 62
     7
  0
POLYLINE
  5
116
  8
0
  6
CONTINUOUS
 62
     7
 66
     1
 10
0.0
 20
0.0
 30
0.0
  0
VERTEX
  5
3BE
  8
0
  6
CONTINUOUS
 62
     7
 10
84.915706063
 20
64.1922857743
 30
0.0
  0
VERTEX
  5
3BF
  8
0
  6
CONTINUOUS
 62
     7
 10
84.95944895690001
 20
63.7247349658
 30
0.0
  0
VERTEX
  5
3C0
  8
0
  6
CONTINUOUS
 62
     7
 10
84.88462199280001
 20
63.253053004
 30
0.0
  0
VERTEX
  5
3C1
  8
0
  6
CONTINUOUS
 62
     7
 10
84.6916267188
 20
62.7926870713
 30
0.0
  0
VERTEX
  5
3C2
  8
0
  6
CONTINUOUS
 62
     7
 10
84.3845764941
 20
62.3534490683
 30
0.0
  0
VERTEX
  5
3C3
  8
0
  6
CONTINUOUS
 62
     7
 10
83.9700155612
 20
61.9447005904
 30
0.0
  0
VERTEX
  5
3C4
  8
0
  6
CONTINUOUS
 62
     7
 10
83.45677956670001
 20
61.5751534019
 30
0.0
  0
VERTEX
  5
3C5
  8
0
  6
CONTINUOUS
 62
     7
 10
82.8558072446
 20
61.2526837594
 30
0.0
  0
VERTEX
  5
3C6
  8
0
  6
CONTINUOUS
 62
     7
 10
82.17990727670001
 20
60.9841645436
 30
0.0
  0
VERTEX
  5
3C7
  8
0
  6
CONTINUOUS
 62
     7
 10
81.4434852973
 20
60.7753187752
 30
0.0
  0
VERTEX
  5
3C8
  8
0
  6
CONTINUOUS
 62
     7
 10
80.66223686230001
 20
60.6305976393
 30
0.0
  0
VERTEX
  5
3C9
  8
0
  6
CONTINUOUS
 62
     7
 10
79.8528129259
 20
60.5530856157
 30
0.0
  0
VERTEX
  5
3CA
  8
0
  6
CONTINUOUS
 62
     7
 10
79.0324649539
 20
60.5444347385
 30
0.0
  0
VERTEX
  5
3CB
  8
0
  6
CONTINUOUS
 62
     7
 10
78.218677239
 20
60.6048293862
 30
0.0
  0
VERTEX
  5
3CC
  8
0
  6
CONTINUOUS
 62
     7
 10
77.42879425370001
 20
60.7329823516
 30
0.0
  0
VERTEX
  5
3CD
  8
0
  6
CONTINUOUS
 62
     7
 10
76.6796509823
 20
60.926162277
 30
0.0
  0
VERTEX
  5
3CE
  8
0
  6
CONTINUOUS
 62
     7
 10
75.98721411299999
 20
61.1802518674
 30
0.0
  0
VERTEX
  5
3CF
  8
0
  6
CONTINUOUS
 62
     7
 10
75.3662417356
 20
61.4898356445
 30
0.0
  0
SEQEND
  5
3BD
  8
0
  6
CONTINUOUS
 62
     7
  0
POLYLINE
  5
117
  8
0
  6
CONTINUOUS
 62
     7
 66
     1
 10
0.0
 20
0.0
 30
0.0
  0
VERTEX
  5
3D1
  8
0
  6
CONTINUOUS
 62
     7
 10
73.6740314148
 20
61.6469189195
 30
0.0
  0
VERTEX
  5
3D2
  8
0
  6
CONTINUOUS
 62
     7
 10
73.7198534418
 20
61.189434423
 30
0.0
  0
VERTEX
  5
3D3
  8
0
  6
CONTINUOUS
 62
     7
 10
73.88495111170001
 20
60.7214625767
 30
0.0
  0
VERTEX
  5
3D4
  8
0
  6
CONTINUOUS
 62
     7
 10
74.16631935949999
 20
60.2723548149
 30
0.0
  0
VERTEX
  5
3D5
  8
0
  6
CONTINUOUS
 62
     7
 10
74.5579613094
 20
59.8516830898
 30
0.0
  0
VERTEX
  5
3D6
  8
0
  6
CONTINUOUS
 62
     7
 10
75.05152979339999
 20
59.4684132888
 30
0.0
  0
VERTEX
  5
3D7
  8
0
  6
CONTINUOUS
 62
     7
 10
75.63650525590001
 20
59.1307141424
 30
0.0
  0
VERTEX
  5
3D8
  8
0
  6
CONTINUOUS
 62
     7
 10
76.3004199608
 20
58.8457831215
 30
0.0
  0
VERTEX
  5
3D9
  8
0
  6
CONTINUOUS
 62
     7
 10
77.02912371860001
 20
58.6196930363
 30
0.0
  0
VERTEX
  5
3DA
  8
0
  6
CONTINUOUS
 62
     7
 10
77.8070854739
 20
58.4572626043
 30
0.0
  0
VERTEX
  5
3DB
  8
0
  6
CONTINUOUS
 62
     7
 10
78.6177243226
 20
58.3619537481
 30
0.0
  0
VERTEX
  5
3DC
  8
0
  6
CONTINUOUS
 62
     7
 10
79.443762905
 20
58.3357978107
 30
0.0
  0
VERTEX
  5
3DD
  8
0
  6
CONTINUOUS
 62
     7
 10
80.2675956428
 20
58.3793522603
 30
0.0
  0
VERTEX
  5
3DE
  8
0
  6
CONTINUOUS
 62
     7
 10
81.0716639716
 20
58.4916888095
 30
0.0
  0
VERTEX
  5
3DF
  8
0
  6
CONTINUOUS
 62
     7
 10
81.8388305708
 20
58.6704131999
 30
0.0
  0
VERTEX
  5
3E0
  8
0
  6
CONTINUOUS
 62
     7
 10
82.55274461640001
 20
58.9117162312
 30
0.0
  0
VERTEX
  5
3E1
  8
0
  6
CONTINUOUS
 62
     7
 10
83.1981902699
 20
59.2104549484
 30
0.0
  0
VERTEX
  5
3E2
  8
0
  6
CONTINUOUS
 62
     7
 10
83.7614109778
 20
59.5602622543
 30
0.0
  0
VERTEX
  5
3E3
  8
0
  6
CONTINUOUS
 62
     7
 10
84.23040266859999
 20
59.9536826135
 30
0.0
  0
VERTEX
  5
3E4
  8
0
  6
CONTINUOUS
 62
     7
 10
84.59516959849999
 20
60.3823309541
 30
0.0
  0
VERTEX
  5
3E5
  8
0
  6
CONTINUOUS
 62
     7
 10
84.8479373939
 20
60.8370713809
 30
0.0
  0
VERTEX
  5
3E6
  8
0
  6
CONTINUOUS
 62
     7
 10
84.9833187479
 20
61.3082118913
 30
0.0
  0
VERTEX
  5
3E7
  8
0
  6
CONTINUOUS
 62
     7
 10
85.00650173779999
 20
61.6469189195
 30
0.0
  0
SEQEND
  5
3D0
  8
0
  6
CONTINUOUS
 62
     7
  0
ARC
  5
118
  8
0
  6
CONTINUOUS
 62
     7
 10
85.43118553700001
 20
62.559025318
 30
0.0
 40
0.902338321457497
 50
290.7834207995
 51
69.21657920049999
  0
LINE
  5
119
  8
0
  6
CONTINUOUS
 62
     7
 10
85.59398768600001
 20
61.624549847
 30
0.0
 11
85.751368059
 21
61.7154036024
 31
0.0
  0
ARC
  5
11A
  8
0
  6
CONTINUOUS
 62
     7
 10
85.94460745009999
 20
60.9120486253
 30
0.0
 40
0.794098362829287
 50
116.2016637115
 51
162.5408912084
  0
POLYLINE
  5
11B
  8
0
  6
CONTINUOUS
 62
     7
 66
     1
 10
0.0
 20
0.0
 30
0.0
  0
VERTEX
  5
3E9
  8
0
  6
CONTINUOUS
 62
     7
 10
80.1306023778
 20
58.2312486276
 30
0.0
  0
VERTEX
  5
3EA
  8
0
  6
CONTINUOUS
 62
     7
 10
80.96528926729999
 20
58.3322894539
 30
0.0
  0
VERTEX
  5
3EB
  8
0
  6
CONTINUOUS
 62
     7
 10
81.76602216489999
 20
58.5017442102
 30
0.0
  0
VERTEX
  5
3EC
  8
0
  6
CONTINUOUS
 62
     7
 10
82.516070179
 20
58.7360722286
 30
0.0
  0
VERTEX
  5
3ED
  8
0
  6
CONTINUOUS
 62
     7
 10
83.19976145210001
 20
59.0303773489
 30
0.0
  0
VERTEX
  5
3EE
  8
0
  6
CONTINUOUS
 62
     7
 10
83.8028106157
 20
59.3785102209
 30
0.0
  0
VERTEX
  5
3EF
  8
0
  6
CONTINUOUS
 62
     7
 10
84.31261727560001
 20
59.7731967917
 30
0.0
  0
VERTEX
  5
3F0
  8
0
  6
CONTINUOUS
 62
     7
 10
84.7185292906
 20
60.2061902937
 30
0.0
  0
VERTEX
  5
3F1
  8
0
  6
CONTINUOUS
 62
     7
 10
85.01206534329999
 20
60.6684435561
 30
0.0
  0
VERTEX
  5
3F2
  8
0
  6
CONTINUOUS
 62
     7
 10
85.1586396221
 20
61.0419467237
 30
0.0
  0
SEQEND
  5
3E8
  8
0
  6
CONTINUOUS
 62
     7
  0
ARC
  5
11C
  8
0
  6
CONTINUOUS
 62
     7
 10
80.2490533598
 20
56.2629595317
 30
0.0
 40
1.971850045000439
 50
93.443887476
 51
118.4696749733
  0
LINE
  5
11D
  8
0
  6
CONTINUOUS
 62
     7
 10
79.151704768
 20
57.9054990806
 30
0.0
 11
79.309085141
 21
57.9963528361
 31
0.0
  0
ARC
  5
11E
  8
0
  6
CONTINUOUS
 62
     7
 10
77.6903507535
 20
60.7259019895
 30
0.0
 40
3.176511943017376
 50
242.6096722366
 51
297.3903277634
  0
LINE
  5
11F
  8
0
  6
CONTINUOUS
 62
     7
 10
72.9291650935
 20
59.8104513415
 30
0.0
 11
76.2289967391
 21
57.9054990806
 31
0.0
  0
ARC
  5
120
  8
0
  6
CONTINUOUS
 62
     7
 10
73.2493476156
 20
60.6540730571
 30
0.0
 40
0.9023383214575205
 50
110.7834207995
 51
249.2165792005
  0
LINE
  5
121
  8
0
  6
CONTINUOUS
 62
     7
 10
73.0865454666
 20
61.5885485281
 30
0.0
 11
72.9291650935
 21
61.4976947726
 31
0.0
  0
ARC
  5
122
  8
0
  6
CONTINUOUS
 62
     7
 10
72.7359257025
 20
62.3010497498
 30
0.0
 40
0.7940983628291455
 50
296.2016637115
 51
342.5408912084
  0
ARC
  5
123
  8
0
  6
CONTINUOUS
 62
     7
 10
79.068893836
 20
57.7760385086
 30
0.0
 40
0.1536804807572636
 50
2.6054784857
 51
57.39452166
  0
ARC
  5
124
  8
0
  6
CONTINUOUS
 62
     7
 10
77.6903507535
 20
60.7398986112
 30
0.0
 40
3.330214133808663
 50
242.6096722366
 51
297.3903277634
  0
ARC
  5
125
  8
0
  6
CONTINUOUS
 62
     7
 10
76.3118076711
 20
57.7760385086
 30
0.0
 40
0.1536804807571758
 50
122.60547834
 51
177.3945215144
  0
ARC
  5
126
  8
0
  6
CONTINUOUS
 62
     7
 10
77.6903507535
 20
59.324561204
 30
0.0
 40
3.3302141338086
 50
242.6096722366
 51
297.3903277634
  0
LINE
  5
127
  8
0
  6
CONTINUOUS
 62
     7
 10
76.1582860609
 20
56.3676871866
 30
0.0
 11
76.1582860609
 21
57.7830245938
 31
0.0
  0
LINE
  5
128
  8
0
  6
CONTINUOUS
 62
     7
 10
79.2224154461
 20
57.7830245938
 30
0.0
 11
79.2224154461
 21
56.3676871866
 31
0.0
  0
ARC
  5
129
  8
0
  6
CONTINUOUS
 62
     7
 10
85.1862604422
 20
61.0497496653
 30
0.0
 40
0.1005518153618857
 50
6.3729486735
 51
89.5260747578
  0
POLYLINE
  5
12A
  8
0
  6
CONTINUOUS
 62
     7
 66
     1
 10
0.0
 20
0.0
 30
0.0
  0
VERTEX
  5
3F4
  8
0
  6
CONTINUOUS
 62
     7
 10
85.2861908913
 20
61.0609108894
 30
0.0
  0
VERTEX
  5
3F5
  8
0
  6
CONTINUOUS
 62
     7
 10
85.10819752579999
 20
60.5708893795
 30
0.0
  0
VERTEX
  5
3F6
  8
0
  6
CONTINUOUS
 62
     7
 10
84.8096862858
 20
60.100801316
 30
0.0
  0
VERTEX
  5
3F7
  8
0
  6
CONTINUOUS
 62
     7
 10
84.3968944061
 20
59.6604689411
 30
0.0
  0
VERTEX
  5
3F8
  8
0
  6
CONTINUOUS
 62
     7
 10
83.87844695530001
 20
59.2590927674
 30
0.0
  0
VERTEX
  5
3F9
  8
0
  6
CONTINUOUS
 62
     7
 10
83.2651766195
 20
58.9050593383
 30
0.0
  0
VERTEX
  5
3FA
  8
0
  6
CONTINUOUS
 62
     7
 10
82.5698973587
 20
58.6057659956
 30
0.0
  0
VERTEX
  5
3FB
  8
0
  6
CONTINUOUS
 62
     7
 10
81.8071366664
 20
58.3674663158
 30
0.0
  0
VERTEX
  5
3FC
  8
0
  6
CONTINUOUS
 62
     7
 10
80.9928320248
 20
58.195139445
 30
0.0
  0
VERTEX
  5
3FD
  8
0
  6
CONTINUOUS
 62
     7
 10
80.1439978999
 20
58.0923860623
 30
0.0
  0
SEQEND
  5
3F3
  8
0
  6
CONTINUOUS
 62
     7
  0
ARC
  5
12B
  8
0
  6
CONTINUOUS
 62
     7
 10
79.4180529666
 20
58.092434417
 30
0.0
 40
0.7259449349274301
 50
360.0
 51
11.0239117737
  0
LINE
  5
12C
  8
0
  6
CONTINUOUS
 62
     7
 10
80.65039952780001
 20
57.0015938572
 30
0.0
 11
80.65039952780001
 21
56.7294135866
 31
0.0
  0
LINE
  5
12D
  8
0
  6
CONTINUOUS
 62
     7
 10
80.1439978999
 20
58.0923860623
 30
0.0
 11
80.1439978999
 21
56.677048655
 31
0.0
  0
LINE
  5
12E
  8
0
  6
CONTINUOUS
 62
     7
 10
85.2861908913
 20
59.6455734821
 30
0.0
 11
85.2861908913
 21
61.0609108894
 31
0.0
  0
LINE
  5
12F
  8
0
  6
CONTINUOUS
 62
     7
 10
85.1954823408
 20
59.6254143156
 30
0.0
 11
85.1954823408
 21
59.353234045
 31
0.0
  0
POLYLINE
  5
130
  8
0
  6
CONTINUOUS
 62
     7
 66
     1
 10
0.0
 20
0.0
 30
0.0
  0
VERTEX
  5
3FF
  8
0
  6
CONTINUOUS
 62
     7
 10
85.1954823408
 20
59.6254143156
 30
0.0
  0
VERTEX
  5
400
  8
0
  6
CONTINUOUS
 62
     7
 10
84.9525847332
 20
59.1568693535
 30
0.0
  0
VERTEX
  5
401
  8
0
  6
CONTINUOUS
 62
     7
 10
84.59779229039999
 20
58.712745044
 30
0.0
  0
VERTEX
  5
402
  8
0
  6
CONTINUOUS
 62
     7
 10
84.1381786388
 20
58.3018960555
 30
0.0
  0
VERTEX
  5
403
  8
0
  6
CONTINUOUS
 62
     7
 10
83.5829072634
 20
57.9325136342
 30
0.0
  0
VERTEX
  5
404
  8
0
  6
CONTINUOUS
 62
     7
 10
82.94304881239999
 20
57.6119622924
 30
0.0
  0
VERTEX
  5
405
  8
0
  6
CONTINUOUS
 62
     7
 10
82.23136037720001
 20
57.346632979
 30
0.0
  0
VERTEX
  5
406
  8
0
  6
CONTINUOUS
 62
     7
 10
81.4620311498
 20
57.1418156614
 30
0.0
  0
VERTEX
  5
407
  8
0
  6
CONTINUOUS
 62
     7
 10
80.65039952780001
 20
57.0015938572
 30
0.0
  0
SEQEND
  5
3FE
  8
0
  6
CONTINUOUS
 62
     7
  0
ARC
  5
131
  8
0
  6
CONTINUOUS
 62
     7
 10
79.3619207086
 20
66.7150167126
 30
0.0
 40
10.06838852334789
 50
274.4550233579
 51
277.3524578077
  0
ARC
  5
132
  8
0
  6
CONTINUOUS
 62
     7
 10
83.1535168975
 20
60.1470678208
 30
0.0
 40
2.190843430167823
 50
338.7559267474
 51
346.7674050817
  0
ARC
  5
133
  8
0
  6
CONTINUOUS
 62
     7
 10
80.25418485989999
 20
56.2614194615
 30
0.0
 40
1.834279111628694
 50
93.443887476
 51
118.4696749733
  0
ARC
  5
134
  8
0
  6
CONTINUOUS
 62
     7
 10
79.226274209
 20
57.8668922641
 30
0.0
 40
0.1536804807572207
 50
2.6054784857
 51
57.39452166
  0
LINE
  5
135
  8
0
  6
CONTINUOUS
 62
     7
 10
79.3797958191
 20
57.8738783493
 30
0.0
 11
79.2224154461
 21
57.7830245938
 31
0.0
  0
LINE
  5
136
  8
0
  6
CONTINUOUS
 62
     7
 10
76.1582860609
 20
57.7830245938
 30
0.0
 11
72.8584544154
 21
59.6879768547
 31
0.0
  0
ARC
  5
137
  8
0
  6
CONTINUOUS
 62
     7
 10
73.01197602550001
 20
59.6809907695
 30
0.0
 40
0.1536804807571613
 50
122.60547834
 51
177.3945215144
  0
LINE
  5
138
  8
0
  6
CONTINUOUS
 62
     7
 10
79.3797958191
 20
56.458540942
 30
0.0
 11
79.3797958191
 21
57.8738783493
 31
0.0
  0
ARC
  5
139
  8
0
  6
CONTINUOUS
 62
     7
 10
80.25418485989999
 20
54.8460820543
 30
0.0
 40
1.83427911162831
 50
93.443887476
 51
118.4696749733
  0
LINE
  5
13A
  8
0
  6
CONTINUOUS
 62
     7
 10
79.2224154461
 20
56.3676871866
 30
0.0
 11
79.3797958191
 21
56.458540942
 31
0.0
  0
ARC
  5
13B
  8
0
  6
CONTINUOUS
 62
     7
 10
74.5943950292
 20
56.580628607
 30
0.0
 40
1.15260360567915
 50
2.6054784857
 51
57.39452166
  0
LINE
  5
13C
  8
0
  6
CONTINUOUS
 62
     7
 10
74.7676427246
 20
57.8101121325
 30
0.0
 11
75.2154770194
 21
57.5515828971
 31
0.0
  0
LINE
  5
13D
  8
0
  6
CONTINUOUS
 62
     7
 10
73.80126345700001
 20
58.3679910089
 30
0.0
 11
74.24909775170001
 21
58.1094617735
 31
0.0
  0
LINE
  5
13E
  8
0
  6
CONTINUOUS
 62
     7
 10
72.8584544154
 20
58.2726394475
 30
0.0
 11
73.04632150889999
 21
58.1641860829
 31
0.0
  0
LINE
  5
13F
  8
0
  6
CONTINUOUS
 62
     7
 10
72.8584544154
 20
59.6879768547
 30
0.0
 11
72.8584544154
 21
58.2726394475
 31
0.0
  0
LINE
  5
140
  8
0
  6
CONTINUOUS
 62
     7
 10
75.7574641041
 20
56.599076777
 30
0.0
 11
76.1582860609
 21
56.3676871866
 31
0.0
  0
LINE
  5
141
  8
0
  6
CONTINUOUS
 62
     7
 10
74.7676427246
 20
57.8101121325
 30
0.0
 11
74.7883562759
 21
57.7812413964
 31
0.0
  0
LINE
  5
142
  8
0
  6
CONTINUOUS
 62
     7
 10
80.65039952780001
 20
56.7294135866
 30
0.0
 11
81.3094364103
 21
57.1098674807
 31
0.0
  0
LINE
  5
143
  8
0
  6
CONTINUOUS
 62
     7
 10
85.00792660179999
 20
59.2449604215
 30
0.0
 11
85.1954823408
 21
59.353234045
 31
0.0
  0
LINE
  5
144
  8
0
  6
CONTINUOUS
 62
     7
 10
74.24909775170001
 20
58.1094617735
 30
0.0
 11
74.24713080230001
 21
58.0945160762
 31
0.0
  0
ARC
  5
145
  8
0
  6
CONTINUOUS
 62
     7
 10
73.1941296401
 20
60.5724189759
 30
0.0
 40
0.9459998531409571
 50
110.7834207995
 51
249.2165792005
  0
ARC
  5
146
  8
0
  6
CONTINUOUS
 62
     7
 10
72.906022971
 20
61.4629174999
 30
0.0
 40
0.0479525546325263
 50
124.0563508249
 51
187.2558295684
  0
ARC
  5
147
  8
0
  6
CONTINUOUS
 62
     7
 10
73.30817607669999
 20
59.2652120519
 30
0.0
 40
1.089701770069856
 50
185.6947992512
 51
245.6253417064
  0
ARC
  5
148
  8
0
  6
CONTINUOUS
 62
     7
 10
85.51117675400001
 20
61.495089275
 30
0.0
 40
0.153680480757323
 50
2.6054784857
 51
57.39452166
  0
ARC
  5
149
  8
0
  6
CONTINUOUS
 62
     7
 10
85.99085628420001
 20
60.8392835261
 30
0.0
 40
0.7386961514689152
 50
116.2016637115
 51
162.5408912084
  0
LINE
  5
14A
  8
0
  6
CONTINUOUS
 62
     7
 10
85.66469836410001
 20
61.5020753602
 30
0.0
 11
85.66469836410001
 21
60.0867379529
 31
0.0
  0
ARC
  5
14B
  8
0
  6
CONTINUOUS
 62
     7
 10
85.99085628420001
 20
59.4239461188
 30
0.0
 40
0.7386961514687949
 50
116.2016637115
 51
162.5408912084
  0
ARC
  5
14C
  8
0
  6
CONTINUOUS
 62
     7
 10
85.668557127
 20
61.5859430304
 30
0.0
 40
0.1536804807572491
 50
2.6054784857
 51
57.39452166
  0
LINE
  5
14D
  8
0
  6
CONTINUOUS
 62
     7
 10
85.8220787372
 20
61.5929291157
 30
0.0
 11
85.66469836410001
 21
61.5020753602
 31
0.0
  0
ARC
  5
14E
  8
0
  6
CONTINUOUS
 62
     7
 10
72.6896768684
 20
62.2105066866
 30
0.0
 40
0.7386961514688739
 50
296.2016637115
 51
342.5408912084
  0
ARC
  5
14F
  8
0
  6
CONTINUOUS
 62
     7
 10
73.4778118608
 20
61.980366262
 30
0.0
 40
0.0839025997530309
 50
79.2643964976
 51
174.1765417023
  0
LINE
  5
150
  8
0
  6
CONTINUOUS
 62
     7
 10
85.8220787372
 20
60.1775917084
 30
0.0
 11
85.8220787372
 21
61.5929291157
 31
0.0
  0
LINE
  5
151
  8
0
  6
CONTINUOUS
 62
     7
 10
85.66469836410001
 20
60.0867379529
 30
0.0
 11
85.8220787372
 21
60.1775917084
 31
0.0
  0
ARC
  5
152
  8
0
  6
CONTINUOUS
 62
     7
 10
85.77451018159999
 20
63.3678697608
 30
0.0
 40
0.0479525546558292
 50
352.7441704487
 51
55.9436491579
  0
ARC
  5
153
  8
0
  6
CONTINUOUS
 62
     7
 10
85.4864035124
 20
62.4773712368
 30
0.0
 40
0.9459998531409354
 50
290.7834207995
 51
69.21657920049999
  0
ARC
  5
154
  8
0
  6
CONTINUOUS
 62
     7
 10
85.3723570759
 20
61.1701643128
 30
0.0
 40
1.089701770070023
 50
294.3746582936
 51
354.3052007488
  0
POLYLINE
  5
155
  8
0
  6
CONTINUOUS
 62
     7
 66
     1
 10
0.0
 20
0.0
 30
0.0
  0
VERTEX
  5
409
  8
0
  6
CONTINUOUS
 62
     7
 10
73.3943422613
 20
61.9888793233
 30
0.0
  0
VERTEX
  5
40A
  8
0
  6
CONTINUOUS
 62
     7
 10
73.5723356268
 20
62.4789008332
 30
0.0
  0
VERTEX
  5
40B
  8
0
  6
CONTINUOUS
 62
     7
 10
73.6965600249
 20
62.7007178533
 30
0.0
  0
SEQEND
  5
408
  8
0
  6
CONTINUOUS
 62
     7
  0
ARC
  5
156
  8
0
  6
CONTINUOUS
 62
     7
 10
156.0830351945
 20
101.9905699039
 30
0.0
 40
1.089701770069811
 50
294.3746582936
 51
354.3052007488
  0
LINE
  5
157
  8
0
  6
CONTINUOUS
 62
     7
 10
156.3753764828
 20
100.907143544
 30
0.0
 11
156.5327568558
 21
100.9979972995
 31
0.0
  0
ARC
  5
158
  8
0
  6
CONTINUOUS
 62
     7
 10
156.7015344029
 20
100.2443517099
 30
0.0
 40
0.7386961514687823
 50
116.2016637115
 51
162.5408912084
  0
ARC
  5
159
  8
0
  6
CONTINUOUS
 62
     7
 10
153.8641950161
 20
100.9674734119
 30
0.0
 40
2.190843430171144
 50
338.7559267474
 51
346.7674050817
  0
LINE
  5
15A
  8
0
  6
CONTINUOUS
 62
     7
 10
151.3610776464
 20
97.5498191777
 30
0.0
 11
152.020114529
 21
97.9302730718
 31
0.0
  0
LINE
  5
15B
  8
0
  6
CONTINUOUS
 62
     7
 10
155.7186047205
 20
100.0653660126
 30
0.0
 11
155.9061604595
 21
100.1736396361
 31
0.0
  0
ARC
  5
15C
  8
0
  6
CONTINUOUS
 62
     7
 10
150.0725988273
 20
107.5354223037
 30
0.0
 40
10.0683885233464
 50
274.4550233579
 51
277.3524578077
  0
ARC
  5
15D
  8
0
  6
CONTINUOUS
 62
     7
 10
150.9648629785
 20
95.6664876454
 30
0.0
 40
1.834279111628322
 50
93.443887476
 51
118.4696749733
  0
LINE
  5
15E
  8
0
  6
CONTINUOUS
 62
     7
 10
149.9330935647
 20
97.18809277770001
 30
0.0
 11
150.0904739378
 21
97.2789465332
 31
0.0
  0
ARC
  5
15F
  8
0
  6
CONTINUOUS
 62
     7
 10
148.4010288722
 20
100.1449667951
 30
0.0
 40
3.330214133808998
 50
242.6096722366
 51
297.3903277634
  0
LINE
  5
160
  8
0
  6
CONTINUOUS
 62
     7
 10
146.4681422227
 20
97.41948236810001
 30
0.0
 11
146.8689641796
 21
97.18809277770001
 31
0.0
  0
LINE
  5
161
  8
0
  6
CONTINUOUS
 62
     7
 10
149.9330935647
 20
97.18809277770001
 30
0.0
 11
149.9330935647
 21
95.9632815599
 31
0.0
  0
ARC
  5
162
  8
0
  6
CONTINUOUS
 62
     7
 10
148.4010288722
 20
98.92015557729999
 30
0.0
 40
3.330214133808923
 50
242.6096722366
 51
297.3903277634
  0
LINE
  5
163
  8
0
  6
CONTINUOUS
 62
     7
 10
146.8689641796
 20
95.9632815599
 30
0.0
 11
146.8689641796
 21
97.18809277770001
 31
0.0
  0
LINE
  5
164
  8
0
  6
CONTINUOUS
 62
     7
 10
150.8546760186
 20
97.49745424619999
 30
0.0
 11
150.8546760186
 21
96.2726430284
 31
0.0
  0
LINE
  5
165
  8
0
  6
CONTINUOUS
 62
     7
 10
151.3610776464
 20
97.2776389071
 30
0.0
 11
151.3610776464
 21
97.5498191777
 31
0.0
  0
ARC
  5
166
  8
0
  6
CONTINUOUS
 62
     7
 10
150.306164673
 20
105.8705674332
 30
0.0
 40
8.657439692919986
 50
276.9989096992
 51
291.8419087979
  0
LINE
  5
167
  8
0
  6
CONTINUOUS
 62
     7
 10
153.5271380464
 20
96.8819802539
 30
0.0
 11
153.5271380464
 21
97.8346112011
 31
0.0
  0
ARC
  5
168
  8
0
  6
CONTINUOUS
 62
     7
 10
150.230486138
 20
105.1754247702
 30
0.0
 40
8.924636449165622
 50
274.0105462205
 51
291.6778668686
  0
LINE
  5
169
  8
0
  6
CONTINUOUS
 62
     7
 10
150.0904739378
 20
96.0541353153
 30
0.0
 11
150.0904739378
 21
97.2789465332
 31
0.0
  0
ARC
  5
16A
  8
0
  6
CONTINUOUS
 62
     7
 10
150.9648629785
 20
94.4416764276
 30
0.0
 40
1.834279111628469
 50
93.443887476
 51
118.4696749733
  0
LINE
  5
16B
  8
0
  6
CONTINUOUS
 62
     7
 10
149.9330935647
 20
95.9632815599
 30
0.0
 11
150.0904739378
 21
96.0541353153
 31
0.0
  0
LINE
  5
16C
  8
0
  6
CONTINUOUS
 62
     7
 10
143.5691325341
 20
99.0930450386
 30
0.0
 11
143.7569996275
 21
98.984591674
 31
0.0
  0
LINE
  5
16D
  8
0
  6
CONTINUOUS
 62
     7
 10
145.6438385704
 20
96.67053151979999
 30
0.0
 11
146.8689641796
 21
95.9632815599
 31
0.0
  0
LINE
  5
16E
  8
0
  6
CONTINUOUS
 62
     7
 10
152.8545710407
 20
98.13981429170001
 30
0.0
 11
151.3610776464
 21
97.2776389071
 31
0.0
  0
LINE
  5
16F
  8
0
  6
CONTINUOUS
 62
     7
 10
153.5271380464
 20
97.8346112011
 30
0.0
 11
152.9480077003
 21
98.16893603360001
 31
0.0
  0
LINE
  5
170
  8
0
  6
CONTINUOUS
 62
     7
 10
155.9061604595
 20
99.9014593655
 30
0.0
 11
155.3556293523
 21
99.5836445222
 31
0.0
  0
LINE
  5
171
  8
0
  6
CONTINUOUS
 62
     7
 10
154.3407258341
 20
98.711963908
 30
0.0
 11
154.3407258341
 21
98.7804386192
 31
0.0
  0
LINE
  5
172
  8
0
  6
CONTINUOUS
 62
     7
 10
154.3407258341
 20
98.711963908
 30
0.0
 11
153.1740398721
 21
98.0384504383
 31
0.0
  0
LINE
  5
173
  8
0
  6
CONTINUOUS
 62
     7
 10
155.9061604595
 20
99.9014593655
 30
0.0
 11
155.9061604595
 21
100.1736396361
 31
0.0
  0
LINE
  5
174
  8
0
  6
CONTINUOUS
 62
     7
 10
154.8121303549
 20
98.4398278708
 30
0.0
 11
154.3407258341
 21
98.711963908
 31
0.0
  0
LINE
  5
175
  8
0
  6
CONTINUOUS
 62
     7
 10
153.5271380464
 20
97.6980176009
 30
0.0
 11
154.8121303549
 21
98.4398278708
 31
0.0
  0
LINE
  5
176
  8
0
  6
CONTINUOUS
 62
     7
 10
154.8121303549
 20
97.7729862077
 30
0.0
 11
154.8121303549
 21
98.4398278708
 31
0.0
  0
LINE
  5
177
  8
0
  6
CONTINUOUS
 62
     7
 10
153.5271380464
 20
97.0311759379
 30
0.0
 11
154.8121303549
 21
97.7729862077
 31
0.0
  0
ARC
  5
178
  8
0
  6
CONTINUOUS
 62
     7
 10
144.0188541954
 20
100.085617643
 30
0.0
 40
1.089701770069809
 50
185.6947992512
 51
245.6253417064
  0
ARC
  5
179
  8
0
  6
CONTINUOUS
 62
     7
 10
153.0602210827
 20
101.0998848914
 30
0.0
 40
3.087975822044935
 50
307.5301747303
 51
337.1640327799001
  0
LINE
  5
17A
  8
0
  6
CONTINUOUS
 62
     7
 10
155.9968690099
 20
99.24116785539999
 30
0.0
 11
155.9968690099
 21
100.4659790733
 31
0.0
  0
LINE
  5
17B
  8
0
  6
CONTINUOUS
 62
     7
 10
154.9413516088
 20
97.6983883657
 30
0.0
 11
154.9413516088
 21
98.6510193129
 31
0.0
  0
ARC
  5
17C
  8
0
  6
CONTINUOUS
 62
     7
 10
153.2088659051
 20
100.0161606723
 30
0.0
 40
2.893713043547214
 50
306.7773357275
 51
344.4654437494
  0
LINE
  5
17D
  8
0
  6
CONTINUOUS
 62
     7
 10
154.5226629377
 20
98.89272313790001
 30
0.0
 11
154.9413516088
 21
98.6510193129
 31
0.0
  0
LINE
  5
17E
  8
0
  6
CONTINUOUS
 62
     7
 10
154.8121303549
 20
97.7729862077
 30
0.0
 11
154.9413516088
 21
97.6983883657
 31
0.0
  0
LINE
  5
17F
  8
0
  6
CONTINUOUS
 62
     7
 10
142.9692029572
 20
98.52980633670001
 30
0.0
 11
142.93453056
 21
98.75267594189999
 31
0.0
  0
LINE
  5
180
  8
0
  6
CONTINUOUS
 62
     7
 10
156.3753764828
 20
100.907143544
 30
0.0
 11
156.3753764828
 21
99.6823323262
 31
0.0
  0
ARC
  5
181
  8
0
  6
CONTINUOUS
 62
     7
 10
156.7015344029
 20
99.01954049210001
 30
0.0
 40
0.7386961514689787
 50
116.2016637115
 51
162.5408912084
  0
LINE
  5
182
  8
0
  6
CONTINUOUS
 62
     7
 10
156.5327568558
 20
99.7731860817
 30
0.0
 11
156.5327568558
 21
100.9979972995
 31
0.0
  0
LINE
  5
183
  8
0
  6
CONTINUOUS
 62
     7
 10
156.3753764828
 20
99.6823323262
 30
0.0
 11
156.5327568558
 21
99.7731860817
 31
0.0
  0
ARC
  5
184
  8
0
  6
CONTINUOUS
 62
     7
 10
156.0830351945
 20
100.7657586861
 30
0.0
 40
1.089701770069697
 50
294.3746582936
 51
354.3052007488
  0
ARC
  5
185
  8
0
  6
CONTINUOUS
 62
     7
 10
85.3723570759
 20
61.1701643128
 30
0.0
 40
1.089701770069897
 50
294.3746582936
 51
354.3052007488
  0
LINE
  5
186
  8
0
  6
CONTINUOUS
 62
     7
 10
85.66469836410001
 20
60.0867379529
 30
0.0
 11
85.8220787372
 21
60.1775917084
 31
0.0
  0
ARC
  5
187
  8
0
  6
CONTINUOUS
 62
     7
 10
85.99085628420001
 20
59.4239461188
 30
0.0
 40
0.7386961514687188
 50
116.2016637115
 51
162.5408912084
  0
ARC
  5
188
  8
0
  6
CONTINUOUS
 62
     7
 10
83.1535168975
 20
60.1470678208
 30
0.0
 40
2.190843430172099
 50
338.7559267474
 51
346.7674050817
  0
LINE
  5
189
  8
0
  6
CONTINUOUS
 62
     7
 10
80.65039952780001
 20
56.7294135866
 30
0.0
 11
81.3094364103
 21
57.1098674807
 31
0.0
  0
LINE
  5
18A
  8
0
  6
CONTINUOUS
 62
     7
 10
85.00792660179999
 20
59.2449604215
 30
0.0
 11
85.1954823408
 21
59.353234045
 31
0.0
  0
ARC
  5
18B
  8
0
  6
CONTINUOUS
 62
     7
 10
79.3619207086
 20
66.7150167126
 30
0.0
 40
10.06838852334789
 50
274.4550233579
 51
277.3524578077
  0
ARC
  5
18C
  8
0
  6
CONTINUOUS
 62
     7
 10
80.25418485989999
 20
54.8460820543
 30
0.0
 40
1.834279111628317
 50
93.443887476
 51
118.4696749733
  0
LINE
  5
18D
  8
0
  6
CONTINUOUS
 62
     7
 10
79.2224154461
 20
56.3676871866
 30
0.0
 11
79.3797958191
 21
56.458540942
 31
0.0
  0
ARC
  5
18E
  8
0
  6
CONTINUOUS
 62
     7
 10
77.6903507535
 20
59.324561204
 30
0.0
 40
3.330214133808796
 50
242.6096722366
 51
297.3903277634
  0
LINE
  5
18F
  8
0
  6
CONTINUOUS
 62
     7
 10
75.7574641041
 20
56.599076777
 30
0.0
 11
76.1582860609
 21
56.3676871866
 31
0.0
  0
LINE
  5
190
  8
0
  6
CONTINUOUS
 62
     7
 10
79.2224154461
 20
56.3676871866
 30
0.0
 11
79.2224154461
 21
55.1428759687
 31
0.0
  0
ARC
  5
191
  8
0
  6
CONTINUOUS
 62
     7
 10
77.6903507535
 20
58.0997499861
 30
0.0
 40
3.330214133808739
 50
242.6096722366
 51
297.3903277634
  0
LINE
  5
192
  8
0
  6
CONTINUOUS
 62
     7
 10
76.1582860609
 20
55.1428759687
 30
0.0
 11
76.1582860609
 21
56.3676871866
 31
0.0
  0
LINE
  5
193
  8
0
  6
CONTINUOUS
 62
     7
 10
80.1439978999
 20
56.677048655
 30
0.0
 11
80.1439978999
 21
55.4522374372
 31
0.0
  0
LINE
  5
194
  8
0
  6
CONTINUOUS
 62
     7
 10
80.65039952780001
 20
56.457233316
 30
0.0
 11
80.65039952780001
 21
56.7294135866
 31
0.0
  0
ARC
  5
195
  8
0
  6
CONTINUOUS
 62
     7
 10
79.5954865544
 20
65.0501618421
 30
0.0
 40
8.657439692920878
 50
276.9989096992
 51
291.8419087979
  0
LINE
  5
196
  8
0
  6
CONTINUOUS
 62
     7
 10
82.8164599278
 20
56.0615746628
 30
0.0
 11
82.8164599278
 21
57.01420561
 31
0.0
  0
ARC
  5
197
  8
0
  6
CONTINUOUS
 62
     7
 10
79.5198080194
 20
64.3550191791
 30
0.0
 40
8.924636449169581
 50
274.0105462205
 51
291.6778668686
  0
LINE
  5
198
  8
0
  6
CONTINUOUS
 62
     7
 10
79.3797958191
 20
55.2337297242
 30
0.0
 11
79.3797958191
 21
56.458540942
 31
0.0
  0
ARC
  5
199
  8
0
  6
CONTINUOUS
 62
     7
 10
80.25418485989999
 20
53.6212708364
 30
0.0
 40
1.834279111628221
 50
93.443887476
 51
118.4696749733
  0
LINE
  5
19A
  8
0
  6
CONTINUOUS
 62
     7
 10
72.8584544154
 20
58.2726394475
 30
0.0
 11
73.04632150889999
 21
58.1641860829
 31
0.0
  0
LINE
  5
19B
  8
0
  6
CONTINUOUS
 62
     7
 10
74.93316045180001
 20
55.8501259287
 30
0.0
 11
76.1582860609
 21
55.1428759687
 31
0.0
  0
LINE
  5
19C
  8
0
  6
CONTINUOUS
 62
     7
 10
79.2224154461
 20
55.1428759687
 30
0.0
 11
79.3797958191
 21
55.2337297242
 31
0.0
  0
LINE
  5
19D
  8
0
  6
CONTINUOUS
 62
     7
 10
82.14389292200001
 20
57.3194087005
 30
0.0
 11
80.65039952780001
 21
56.457233316
 31
0.0
  0
LINE
  5
19E
  8
0
  6
CONTINUOUS
 62
     7
 10
82.8164599278
 20
57.01420561
 30
0.0
 11
82.2373295817
 21
57.3485304425
 31
0.0
  0
LINE
  5
19F
  8
0
  6
CONTINUOUS
 62
     7
 10
85.1954823408
 20
59.0810537744
 30
0.0
 11
84.6449512336
 21
58.763238931
 31
0.0
  0
LINE
  5
1A0
  8
0
  6
CONTINUOUS
 62
     7
 10
83.6300477155
 20
57.8915583169
 30
0.0
 11
83.6300477155
 21
57.9600330281
 31
0.0
  0
LINE
  5
1A1
  8
0
  6
CONTINUOUS
 62
     7
 10
83.6300477155
 20
57.8915583169
 30
0.0
 11
82.4633617535
 21
57.2180448472
 31
0.0
  0
LINE
  5
1A2
  8
0
  6
CONTINUOUS
 62
     7
 10
85.1954823408
 20
59.0810537744
 30
0.0
 11
85.1954823408
 21
59.353234045
 31
0.0
  0
LINE
  5
1A3
  8
0
  6
CONTINUOUS
 62
     7
 10
84.10145223630001
 20
57.6194222796
 30
0.0
 11
83.6300477155
 21
57.8915583169
 31
0.0
  0
LINE
  5
1A4
  8
0
  6
CONTINUOUS
 62
     7
 10
82.8164599278
 20
56.8776120098
 30
0.0
 11
84.10145223630001
 21
57.6194222796
 31
0.0
  0
LINE
  5
1A5
  8
0
  6
CONTINUOUS
 62
     7
 10
84.10145223630001
 20
56.9525806166
 30
0.0
 11
84.10145223630001
 21
57.6194222796
 31
0.0
  0
LINE
  5
1A6
  8
0
  6
CONTINUOUS
 62
     7
 10
82.8164599278
 20
56.2107703468
 30
0.0
 11
84.10145223630001
 21
56.9525806166
 31
0.0
  0
ARC
  5
1A7
  8
0
  6
CONTINUOUS
 62
     7
 10
73.30817607669999
 20
59.2652120519
 30
0.0
 40
1.08970177006996
 50
185.6947992512
 51
245.6253417064
  0
ARC
  5
1A8
  8
0
  6
CONTINUOUS
 62
     7
 10
82.34954296399999
 20
60.2794793002
 30
0.0
 40
3.087975822044478
 50
307.5301747303
 51
337.1640327799001
  0
LINE
  5
1A9
  8
0
  6
CONTINUOUS
 62
     7
 10
85.2861908913
 20
58.4207622643
 30
0.0
 11
85.2861908913
 21
59.6455734821
 31
0.0
  0
LINE
  5
1AA
  8
0
  6
CONTINUOUS
 62
     7
 10
84.2306734901
 20
56.8779827746
 30
0.0
 11
84.2306734901
 21
57.8306137218
 31
0.0
  0
ARC
  5
1AB
  8
0
  6
CONTINUOUS
 62
     7
 10
82.4981877865
 20
59.1957550812
 30
0.0
 40
2.893713043548004
 50
306.7773357275
 51
344.4654437494
  0
LINE
  5
1AC
  8
0
  6
CONTINUOUS
 62
     7
 10
83.811984819
 20
58.0723175468
 30
0.0
 11
84.2306734901
 21
57.8306137218
 31
0.0
  0
LINE
  5
1AD
  8
0
  6
CONTINUOUS
 62
     7
 10
84.10145223630001
 20
56.9525806166
 30
0.0
 11
84.2306734901
 21
56.8779827746
 31
0.0
  0
LINE
  5
1AE
  8
0
  6
CONTINUOUS
 62
     7
 10
72.2585248386
 20
57.7094007455
 30
0.0
 11
72.2238524413
 21
57.9322703508
 31
0.0
  0
LINE
  5
1AF
  8
0
  6
CONTINUOUS
 62
     7
 10
85.66469836410001
 20
60.0867379529
 30
0.0
 11
85.66469836410001
 21
58.8619267351
 31
0.0
  0
ARC
  5
1B0
  8
0
  6
CONTINUOUS
 62
     7
 10
85.99085628420001
 20
58.199134901
 30
0.0
 40
0.7386961514688276
 50
116.2016637115
 51
162.5408912084
  0
LINE
  5
1B1
  8
0
  6
CONTINUOUS
 62
     7
 10
85.8220787372
 20
58.9527804906
 30
0.0
 11
85.8220787372
 21
60.1775917084
 31
0.0
  0
LINE
  5
1B2
  8
0
  6
CONTINUOUS
 62
     7
 10
85.66469836410001
 20
58.8619267351
 30
0.0
 11
85.8220787372
 21
58.9527804906
 31
0.0
  0
ARC
  5
1B3
  8
0
  6
CONTINUOUS
 62
     7
 10
85.3723570759
 20
59.945353095
 30
0.0
 40
1.089701770070055
 50
294.3746582936
 51
354.3052007488
  0
ARC
  5
1B4
  8
0
  6
CONTINUOUS
 62
     7
 10
226.7937133132
 20
142.8109754951
 30
0.0
 40
1.089701770069871
 50
294.3746582936
 51
354.3052007488
  0
LINE
  5
1B5
  8
0
  6
CONTINUOUS
 62
     7
 10
227.0860546014
 20
141.7275491352
 30
0.0
 11
227.2434349745
 21
141.8184028907
 31
0.0
  0
ARC
  5
1B6
  8
0
  6
CONTINUOUS
 62
     7
 10
227.4122125215
 20
141.0647573011
 30
0.0
 40
0.738696151468922
 50
116.2016637115
 51
162.5408912084
  0
ARC
  5
1B7
  8
0
  6
CONTINUOUS
 62
     7
 10
224.5748731348
 20
141.7878790031
 30
0.0
 40
2.190843430167564
 50
338.7559267474
 51
346.7674050817
  0
LINE
  5
1B8
  8
0
  6
CONTINUOUS
 62
     7
 10
222.0717557651
 20
138.3702247689
 30
0.0
 11
222.7307926476
 21
138.750678663
 31
0.0
  0
LINE
  5
1B9
  8
0
  6
CONTINUOUS
 62
     7
 10
226.4292828391
 20
140.8857716038
 30
0.0
 11
226.6168385781
 21
140.9940452273
 31
0.0
  0
ARC
  5
1BA
  8
0
  6
CONTINUOUS
 62
     7
 10
220.7832769459
 20
148.3558278948
 30
0.0
 40
10.0683885233495
 50
274.4550233579
 51
277.3524578077
  0
ARC
  5
1BB
  8
0
  6
CONTINUOUS
 62
     7
 10
221.6755410972
 20
136.4868932365
 30
0.0
 40
1.834279111628664
 50
93.443887476
 51
118.4696749733
  0
LINE
  5
1BC
  8
0
  6
CONTINUOUS
 62
     7
 10
220.6437716834
 20
138.0084983688
 30
0.0
 11
220.8011520564
 21
138.0993521243
 31
0.0
  0
ARC
  5
1BD
  8
0
  6
CONTINUOUS
 62
     7
 10
219.1117069908
 20
140.9653723862
 30
0.0
 40
3.330214133808544
 50
242.6096722366
 51
297.3903277634
  0
LINE
  5
1BE
  8
0
  6
CONTINUOUS
 62
     7
 10
217.1788203414
 20
138.2398879593
 30
0.0
 11
217.5796422983
 21
138.0084983688
 31
0.0
  0
LINE
  5
1BF
  8
0
  6
CONTINUOUS
 62
     7
 10
220.6437716834
 20
138.0084983688
 30
0.0
 11
220.6437716834
 21
136.783687151
 31
0.0
  0
ARC
  5
1C0
  8
0
  6
CONTINUOUS
 62
     7
 10
219.1117069908
 20
139.7405611684
 30
0.0
 40
3.330214133808822
 50
242.6096722366
 51
297.3903277634
  0
LINE
  5
1C1
  8
0
  6
CONTINUOUS
 62
     7
 10
217.5796422983
 20
136.783687151
 30
0.0
 11
217.5796422983
 21
138.0084983688
 31
0.0
  0
LINE
  5
1C2
  8
0
  6
CONTINUOUS
 62
     7
 10
221.5653541372
 20
138.3178598373
 30
0.0
 11
221.5653541372
 21
137.0930486195
 31
0.0
  0
LINE
  5
1C3
  8
0
  6
CONTINUOUS
 62
     7
 10
222.0717557651
 20
138.0980444982
 30
0.0
 11
222.0717557651
 21
138.3702247689
 31
0.0
  0
ARC
  5
1C4
  8
0
  6
CONTINUOUS
 62
     7
 10
221.0168427917
 20
146.6909730244
 30
0.0
 40
8.657439692923283
 50
276.9989096992
 51
291.8419087979
  0
LINE
  5
1C5
  8
0
  6
CONTINUOUS
 62
     7
 10
224.2378161651
 20
137.702385845
 30
0.0
 11
224.2378161651
 21
138.6550167922
 31
0.0
  0
ARC
  5
1C6
  8
0
  6
CONTINUOUS
 62
     7
 10
220.9411642567
 20
145.9958303613
 30
0.0
 40
8.924636449165908
 50
274.0105462205
 51
291.6778668686
  0
LINE
  5
1C7
  8
0
  6
CONTINUOUS
 62
     7
 10
220.8011520564
 20
136.8745409065
 30
0.0
 11
220.8011520564
 21
138.0993521243
 31
0.0
  0
ARC
  5
1C8
  8
0
  6
CONTINUOUS
 62
     7
 10
221.6755410972
 20
135.2620820187
 30
0.0
 40
1.834279111627831
 50
93.443887476
 51
118.4696749733
  0
LINE
  5
1C9
  8
0
  6
CONTINUOUS
 62
     7
 10
220.6437716834
 20
136.783687151
 30
0.0
 11
220.8011520564
 21
136.8745409065
 31
0.0
  0
LINE
  5
1CA
  8
0
  6
CONTINUOUS
 62
     7
 10
214.2798106527
 20
139.9134506297
 30
0.0
 11
214.4676777462
 21
139.8049972652
 31
0.0
  0
LINE
  5
1CB
  8
0
  6
CONTINUOUS
 62
     7
 10
216.3545166891
 20
137.4909371109
 30
0.0
 11
217.5796422983
 21
136.783687151
 31
0.0
  0
LINE
  5
1CC
  8
0
  6
CONTINUOUS
 62
     7
 10
223.5652491593
 20
138.9602198828
 30
0.0
 11
222.0717557651
 21
138.0980444982
 31
0.0
  0
LINE
  5
1CD
  8
0
  6
CONTINUOUS
 62
     7
 10
224.2378161651
 20
138.6550167922
 30
0.0
 11
223.658685819
 21
138.9893416248
 31
0.0
  0
LINE
  5
1CE
  8
0
  6
CONTINUOUS
 62
     7
 10
226.6168385781
 20
140.7218649566
 30
0.0
 11
226.0663074709
 21
140.4040501133
 31
0.0
  0
LINE
  5
1CF
  8
0
  6
CONTINUOUS
 62
     7
 10
225.0514039528
 20
139.5323694992
 30
0.0
 11
225.0514039528
 21
139.6008442104
 31
0.0
  0
LINE
  5
1D0
  8
0
  6
CONTINUOUS
 62
     7
 10
225.0514039528
 20
139.5323694992
 30
0.0
 11
223.8847179908
 21
138.8588560294
 31
0.0
  0
LINE
  5
1D1
  8
0
  6
CONTINUOUS
 62
     7
 10
226.6168385781
 20
140.7218649566
 30
0.0
 11
226.6168385781
 21
140.9940452273
 31
0.0
  0
LINE
  5
1D2
  8
0
  6
CONTINUOUS
 62
     7
 10
225.5228084736
 20
139.2602334619
 30
0.0
 11
225.0514039528
 21
139.5323694992
 31
0.0
  0
LINE
  5
1D3
  8
0
  6
CONTINUOUS
 62
     7
 10
224.2378161651
 20
138.5184231921
 30
0.0
 11
225.5228084736
 21
139.2602334619
 31
0.0
  0
LINE
  5
1D4
  8
0
  6
CONTINUOUS
 62
     7
 10
225.5228084736
 20
138.5933917989
 30
0.0
 11
225.5228084736
 21
139.2602334619
 31
0.0
  0
LINE
  5
1D5
  8
0
  6
CONTINUOUS
 62
     7
 10
224.2378161651
 20
137.851581529
 30
0.0
 11
225.5228084736
 21
138.5933917989
 31
0.0
  0
ARC
  5
1D6
  8
0
  6
CONTINUOUS
 62
     7
 10
214.729532314
 20
140.9060232342
 30
0.0
 40
1.089701770069648
 50
185.6947992512
 51
245.6253417064
  0
ARC
  5
1D7
  8
0
  6
CONTINUOUS
 62
     7
 10
223.7708992013
 20
141.9202904825
 30
0.0
 40
3.087975822044917
 50
307.5301747303
 51
337.1640327799001
  0
LINE
  5
1D8
  8
0
  6
CONTINUOUS
 62
     7
 10
226.7075471286
 20
140.0615734466
 30
0.0
 11
226.7075471286
 21
141.2863846644
 31
0.0
  0
LINE
  5
1D9
  8
0
  6
CONTINUOUS
 62
     7
 10
225.6520297275
 20
138.5187939569
 30
0.0
 11
225.6520297275
 21
139.4714249041
 31
0.0
  0
ARC
  5
1DA
  8
0
  6
CONTINUOUS
 62
     7
 10
223.9195440238
 20
140.8365662634
 30
0.0
 40
2.893713043547365
 50
306.7773357275
 51
344.4654437494
  0
LINE
  5
1DB
  8
0
  6
CONTINUOUS
 62
     7
 10
225.2333410564
 20
139.7131287291
 30
0.0
 11
225.6520297275
 21
139.4714249041
 31
0.0
  0
LINE
  5
1DC
  8
0
  6
CONTINUOUS
 62
     7
 10
225.5228084736
 20
138.5933917989
 30
0.0
 11
225.6520297275
 21
138.5187939569
 31
0.0
  0
LINE
  5
1DD
  8
0
  6
CONTINUOUS
 62
     7
 10
213.6798810759
 20
139.3502119278
 30
0.0
 11
213.6452086786
 21
139.5730815331
 31
0.0
  0
LINE
  5
1DE
  8
0
  6
CONTINUOUS
 62
     7
 10
227.0860546014
 20
141.7275491352
 30
0.0
 11
227.0860546014
 21
140.5027379174
 31
0.0
  0
ARC
  5
1DF
  8
0
  6
CONTINUOUS
 62
     7
 10
227.4122125215
 20
139.8399460832
 30
0.0
 40
0.738696151468922
 50
116.2016637115
 51
162.5408912084
  0
LINE
  5
1E0
  8
0
  6
CONTINUOUS
 62
     7
 10
227.2434349745
 20
140.5935916728
 30
0.0
 11
227.2434349745
 21
141.8184028907
 31
0.0
  0
LINE
  5
1E1
  8
0
  6
CONTINUOUS
 62
     7
 10
227.0860546014
 20
140.5027379174
 30
0.0
 11
227.2434349745
 21
140.5935916728
 31
0.0
  0
ARC
  5
1E2
  8
0
  6
CONTINUOUS
 62
     7
 10
226.7937133132
 20
141.5861642773
 30
0.0
 40
1.089701770069796
 50
294.3746582936
 51
354.3052007488
  0
POLYLINE
  5
1E3
  8
0
  6
CONTINUOUS
 62
     7
 66
     1
 10
0.0
 20
0.0
 30
0.0
  0
VERTEX
  5
40D
  8
0
  6
CONTINUOUS
 62
     7
 10
56.2414450575
 20
46.706979505
 30
0.0
  0
VERTEX
  5
40E
  8
0
  6
CONTINUOUS
 62
     7
 10
56.4940032376
 20
46.5031690007
 30
0.0
  0
VERTEX
  5
40F
  8
0
  6
CONTINUOUS
 62
     7
 10
56.7081117242
 20
46.2143632572
 30
0.0
  0
VERTEX
  5
410
  8
0
  6
CONTINUOUS
 62
     7
 10
56.8511744411
 20
45.8845303309
 30
0.0
  0
VERTEX
  5
411
  8
0
  6
CONTINUOUS
 62
     7
 10
56.9014113866
 20
45.5638842951
 30
0.0
  0
VERTEX
  5
412
  8
0
  6
CONTINUOUS
 62
     7
 10
56.8511744411
 20
45.3012406019
 30
0.0
  0
VERTEX
  5
413
  8
0
  6
CONTINUOUS
 62
     7
 10
56.7087855651
 20
45.1369746245
 30
0.0
  0
SEQEND
  5
40C
  8
0
  6
CONTINUOUS
 62
     7
  0
ARC
  5
1E4
  8
0
  6
CONTINUOUS
 62
     7
 10
56.048487626
 20
45.4725553977
 30
0.0
 40
0.399502248019554
 50
172.7386580544
 51
235.9985654568
  0
ARC
  5
1E5
  8
0
  6
CONTINUOUS
 62
     7
 10
54.634380474
 20
46.2889887075
 30
0.0
 40
0.3996046219554458
 50
172.7441704332
 51
235.9436491735
  0
POLYLINE
  5
1E6
  8
0
  6
CONTINUOUS
 62
     7
 66
     1
 10
0.0
 20
0.0
 30
0.0
  0
VERTEX
  5
415
  8
0
  6
CONTINUOUS
 62
     7
 10
54.3598909875
 20
47.5691829818
 30
0.0
  0
VERTEX
  5
416
  8
0
  6
CONTINUOUS
 62
     7
 10
54.3605648285
 20
47.5695732336
 30
0.0
  0
VERTEX
  5
417
  8
0
  6
CONTINUOUS
 62
     7
 10
54.5746733151
 20
47.6111745804
 30
0.0
  0
VERTEX
  5
418
  8
0
  6
CONTINUOUS
 62
     7
 10
54.8272314952
 20
47.5233876169
 30
0.0
  0
SEQEND
  5
414
  8
0
  6
CONTINUOUS
 62
     7
  0
LINE
  5
1E7
  8
0
  6
CONTINUOUS
 62
     7
 10
245.1568067645
 20
155.6294063074
 30
0.0
 11
227.0253580688
 21
145.162343773
 31
0.0
  0
LINE
  5
1E8
  8
0
  6
CONTINUOUS
 62
     7
 10
216.6458362819
 20
139.1703733881
 30
0.0
 11
156.3146799502
 21
104.3419381819
 31
0.0
  0
LINE
  5
1E9
  8
0
  6
CONTINUOUS
 62
     7
 10
145.9351581632
 20
98.34996779700001
 30
0.0
 11
85.6040018315
 21
63.5215325908
 31
0.0
  0
LINE
  5
1EA
  8
0
  6
CONTINUOUS
 62
     7
 10
75.2244800446
 20
57.5295622058
 30
0.0
 11
59.0608543169
 21
48.1984996905
 31
0.0
  0
LINE
  5
1EB
  8
0
  6
CONTINUOUS
 62
     7
 10
243.7425932022
 20
156.4458144192
 30
0.0
 11
228.2410965813
 21
147.4969909011
 31
0.0
  0
LINE
  5
1EC
  8
0
  6
CONTINUOUS
 62
     7
 10
215.2316227195
 20
139.9867814999
 30
0.0
 11
157.5304184627
 21
106.6765853099
 31
0.0
  0
LINE
  5
1ED
  8
0
  6
CONTINUOUS
 62
     7
 10
144.5209446009
 20
99.16637590880001
 30
0.0
 11
86.819740344
 21
65.85617971880001
 31
0.0
  0
LINE
  5
1EE
  8
0
  6
CONTINUOUS
 62
     7
 10
73.81026648220001
 20
58.3459703177
 30
0.0
 11
57.6556777756
 21
49.0201247635
 31
0.0
  0
POLYLINE
  5
1EF
  8
0
  6
CONTINUOUS
 62
     7
 66
     1
 10
0.0
 20
0.0
 30
0.0
  0
VERTEX
  5
41A
  8
0
  6
CONTINUOUS
 62
     7
 10
80.93510738960001
 20
62.6331555083
 30
0.0
  0
VERTEX
  5
41B
  8
0
  6
CONTINUOUS
 62
     7
 10
81.7481042524
 20
62.7912115205
 30
0.0
  0
VERTEX
  5
41C
  8
0
  6
CONTINUOUS
 62
     7
 10
82.38478453650001
 20
62.9684825684
 30
0.0
  0
SEQEND
  5
419
  8
0
  6
CONTINUOUS
 62
     7
  0
POLYLINE
  5
1F0
  8
0
  6
CONTINUOUS
 62
     7
 66
     1
 10
0.0
 20
0.0
 30
0.0
  0
VERTEX
  5
41E
  8
0
  6
CONTINUOUS
 62
     7
 10
222.3564636269
 20
144.2739666905
 30
0.0
  0
VERTEX
  5
41F
  8
0
  6
CONTINUOUS
 62
     7
 10
223.1694604897
 20
144.4320227027
 30
0.0
  0
VERTEX
  5
420
  8
0
  6
CONTINUOUS
 62
     7
 10
223.8061407738
 20
144.6092937507
 30
0.0
  0
SEQEND
  5
41D
  8
0
  6
CONTINUOUS
 62
     7
  0
POLYLINE
  5
1F1
  8
0
  6
CONTINUOUS
 62
     7
 66
     1
 10
0.0
 20
0.0
 30
0.0
  0
VERTEX
  5
422
  8
0
  6
CONTINUOUS
 62
     7
 10
151.6457855083
 20
103.4535610994
 30
0.0
  0
VERTEX
  5
423
  8
0
  6
CONTINUOUS
 62
     7
 10
152.4587823711
 20
103.6116171116
 30
0.0
  0
VERTEX
  5
424
  8
0
  6
CONTINUOUS
 62
     7
 10
153.0954626551
 20
103.7888881595
 30
0.0
  0
SEQEND
  5
421
  8
0
  6
CONTINUOUS
 62
     7
  0
LINE
  5
1F2
  8
0
  6
CONTINUOUS
 62
     7
 10
226.5799958594
 20
142.682757906
 30
0.0
 11
226.60844839
 21
142.7911092231
 31
0.0
  0
POLYLINE
  5
1F3
  8
0
  6
CONTINUOUS
 62
     7
 66
     1
 10
0.0
 20
0.0
 30
0.0
  0
VERTEX
  5
426
  8
0
  6
CONTINUOUS
 62
     7
 10
215.1116046339
 20
144.2282900163
 30
0.0
  0
VERTEX
  5
427
  8
0
  6
CONTINUOUS
 62
     7
 10
215.0898240466
 20
144.1854660012
 30
0.0
  0
VERTEX
  5
428
  8
0
  6
CONTINUOUS
 62
     7
 10
214.9147972372
 20
143.7036115165
 30
0.0
  0
SEQEND
  5
425
  8
0
  6
CONTINUOUS
 62
     7
  0
LINE
  5
1F4
  8
0
  6
CONTINUOUS
 62
     7
 10
227.1727242964
 20
145.0434582158
 30
0.0
 11
226.3801934194
 21
145.5009765525
 31
0.0
  0
LINE
  5
1F5
  8
0
  6
CONTINUOUS
 62
     7
 10
216.1654287359
 20
139.4373120896
 30
0.0
 11
216.1889989619
 21
139.4509233148
 31
0.0
  0
LINE
  5
1F6
  8
0
  6
CONTINUOUS
 62
     7
 10
215.6704539891
 20
139.7502729558
 30
0.0
 11
215.6940242151
 21
139.7094481268
 31
0.0
  0
ARC
  5
1F7
  8
0
  6
CONTINUOUS
 62
     7
 10
215.0128878155
 20
139.7519888796
 30
0.0
 40
0.3315728246035442
 50
50.7624980177
 51
136.1455487763
  0
ARC
  5
1F8
  8
0
  6
CONTINUOUS
 62
     7
 10
216.6625371337
 20
139.190052191
 30
0.0
 40
0.0258103416010569
 50
174.7941365181
 51
229.679661189
  0
ARC
  5
1F9
  8
0
  6
CONTINUOUS
 62
     7
 10
215.2483235713
 20
140.0064603028
 30
0.0
 40
0.0258103416011056
 50
174.7941365176
 51
229.6796611889
  0
ARC
  5
1FA
  8
0
  6
CONTINUOUS
 62
     7
 10
214.3212293254
 20
143.097617822
 30
0.0
 40
0.0502977235898892
 50
54.3824225246
 51
114.3071190463
  0
ARC
  5
1FB
  8
0
  6
CONTINUOUS
 62
     7
 10
214.4786096984
 20
143.1884715775
 30
0.0
 40
0.0502977235900868
 50
54.3824225248
 51
114.3071190462
  0
ARC
  5
1FC
  8
0
  6
CONTINUOUS
 62
     7
 10
227.2020163018
 20
145.0025700829
 30
0.0
 40
0.0502977235904778
 50
65.69288095410001
 51
125.617577475
  0
LINE
  5
1FD
  8
0
  6
CONTINUOUS
 62
     7
 10
155.8693177407
 20
101.8623523149
 30
0.0
 11
155.8977702713
 21
101.970703632
 31
0.0
  0
POLYLINE
  5
1FE
  8
0
  6
CONTINUOUS
 62
     7
 66
     1
 10
0.0
 20
0.0
 30
0.0
  0
VERTEX
  5
42A
  8
0
  6
CONTINUOUS
 62
     7
 10
144.4009265152
 20
103.4078844251
 30
0.0
  0
VERTEX
  5
42B
  8
0
  6
CONTINUOUS
 62
     7
 10
144.3791459279
 20
103.3650604101
 30
0.0
  0
VERTEX
  5
42C
  8
0
  6
CONTINUOUS
 62
     7
 10
144.2041191185
 20
102.8832059253
 30
0.0
  0
SEQEND
  5
429
  8
0
  6
CONTINUOUS
 62
     7
  0
LINE
  5
1FF
  8
0
  6
CONTINUOUS
 62
     7
 10
156.4620461777
 20
104.2230526247
 30
0.0
 11
155.6695153007
 21
104.6805709614
 31
0.0
  0
LINE
  5
200
  8
0
  6
CONTINUOUS
 62
     7
 10
145.4547506172
 20
98.6169064984
 30
0.0
 11
145.4783208433
 21
98.63051772359999
 31
0.0
  0
LINE
  5
201
  8
0
  6
CONTINUOUS
 62
     7
 10
144.9597758704
 20
98.9298673646
 30
0.0
 11
144.9833460964
 21
98.8890425357
 31
0.0
  0
ARC
  5
202
  8
0
  6
CONTINUOUS
 62
     7
 10
144.3022096968
 20
98.93158328840001
 30
0.0
 40
0.3315728246034359
 50
50.7624980177
 51
136.1455487763
  0
ARC
  5
203
  8
0
  6
CONTINUOUS
 62
     7
 10
145.951859015
 20
98.36964659989999
 30
0.0
 40
0.0258103416013361
 50
174.7941365183
 51
229.6796611886
  0
ARC
  5
204
  8
0
  6
CONTINUOUS
 62
     7
 10
144.5376454526
 20
99.1860547117
 30
0.0
 40
0.0258103416012782
 50
174.7941365183
 51
229.6796611886
  0
ARC
  5
205
  8
0
  6
CONTINUOUS
 62
     7
 10
143.6105512067
 20
102.2772122308
 30
0.0
 40
0.0502977235900997
 50
54.3824225248
 51
114.3071190462
  0
ARC
  5
206
  8
0
  6
CONTINUOUS
 62
     7
 10
143.7679315797
 20
102.3680659863
 30
0.0
 40
0.0502977235900997
 50
54.3824225248
 51
114.3071190462
  0
ARC
  5
207
  8
0
  6
CONTINUOUS
 62
     7
 10
156.4913381832
 20
104.1821644918
 30
0.0
 40
0.0502977235899997
 50
65.6928809538
 51
125.6175774753
  0
LINE
  5
208
  8
0
  6
CONTINUOUS
 62
     7
 10
85.1586396221
 20
61.0419467237
 30
0.0
 11
85.1870921527
 21
61.1502980409
 31
0.0
  0
POLYLINE
  5
209
  8
0
  6
CONTINUOUS
 62
     7
 66
     1
 10
0.0
 20
0.0
 30
0.0
  0
VERTEX
  5
42E
  8
0
  6
CONTINUOUS
 62
     7
 10
73.6902483966
 20
62.587478834
 30
0.0
  0
VERTEX
  5
42F
  8
0
  6
CONTINUOUS
 62
     7
 10
73.6684678093
 20
62.5446548189
 30
0.0
  0
VERTEX
  5
430
  8
0
  6
CONTINUOUS
 62
     7
 10
73.4934409999
 20
62.0628003342
 30
0.0
  0
SEQEND
  5
42D
  8
0
  6
CONTINUOUS
 62
     7
  0
LINE
  5
20A
  8
0
  6
CONTINUOUS
 62
     7
 10
85.751368059
 20
63.4026470335
 30
0.0
 11
84.9588371821
 21
63.8601653702
 31
0.0
  0
LINE
  5
20B
  8
0
  6
CONTINUOUS
 62
     7
 10
74.74407249860001
 20
57.7965009073
 30
0.0
 11
74.7676427246
 21
57.8101121325
 31
0.0
  0
LINE
  5
20C
  8
0
  6
CONTINUOUS
 62
     7
 10
74.24909775170001
 20
58.1094617735
 30
0.0
 11
74.2726679778
 21
58.0686369446
 31
0.0
  0
ARC
  5
20D
  8
0
  6
CONTINUOUS
 62
     7
 10
73.59153157820001
 20
58.1111776973
 30
0.0
 40
0.3315728246035348
 50
50.7624980177
 51
136.1455487763
  0
ARC
  5
20E
  8
0
  6
CONTINUOUS
 62
     7
 10
75.2411808964
 20
57.5492410087
 30
0.0
 40
0.0258103416014102
 50
174.7941365182
 51
229.6796611883
  0
ARC
  5
20F
  8
0
  6
CONTINUOUS
 62
     7
 10
73.826967334
 20
58.3656491206
 30
0.0
 40
0.0258103416013003
 50
174.7941365181
 51
229.6796611885
  0
ARC
  5
210
  8
0
  6
CONTINUOUS
 62
     7
 10
72.89987308800001
 20
61.4568066397
 30
0.0
 40
0.0502977235901029
 50
54.3824225247
 51
114.3071190461
  0
ARC
  5
211
  8
0
  6
CONTINUOUS
 62
     7
 10
73.0572534611
 20
61.5476603952
 30
0.0
 40
0.0502977235901334
 50
54.3824225248
 51
114.3071190461
  0
ARC
  5
212
  8
0
  6
CONTINUOUS
 62
     7
 10
85.7806600645
 20
63.3617589006
 30
0.0
 40
0.0502977235902441
 50
65.6928809539
 51
125.6175774752
  0
LINE
  5
213
  8
0
  6
CONTINUOUS
 62
     7
 10
143.5691325341
 20
99.0930450386
 30
0.0
 11
143.5691325341
 21
98.87613830950001
 31
0.0
  0
LINE
  5
214
  8
0
  6
CONTINUOUS
 62
     7
 10
72.8584544154
 20
58.2726394475
 30
0.0
 11
72.8584544154
 21
58.0557327183
 31
0.0
  0
LINE
  5
215
  8
0
  6
CONTINUOUS
 62
     7
 10
214.2798106527
 20
139.9134506297
 30
0.0
 11
214.2798106527
 21
139.6965439006
 31
0.0
  0
ENDSEC
  0
EOF
