  0
SECTION
  2
HEADER
  9
$ACADVER
  1
AC1009
  9
$DWGCODEPAGE
  3
dos932
  9
$INSBASE
 10
0.0
 20
0.0
 30
0.0
  9
$EXTMIN
 10
-25.5
 20
-62.63197904430001
 30
0.0
  9
$EXTMAX
 10
7.34511066120001
 20
94.5
 30
0.0
  9
$LIMMIN
 10
0.0
 20
0.0
  9
$LIMMAX
 10
12.0
 20
9.0
  9
$ORTHOMODE
 70
     0
  9
$REGENMODE
 70
     1
  9
$FILLMODE
 70
     1
  9
$QTEXTMODE
 70
     0
  9
$MIRRTEXT
 70
     1
  9
$DRAGMODE
 70
     2
  9
$LTSCALE
 40
12.7
  9
$OSMODE
 70
    37
  9
$ATTMODE
 70
     1
  9
$TEXTSIZE
 40
0.2
  9
$TRACEWID
 40
1.0
  9
$TEXTSTYLE
  7
STANDARD
  9
$CLAYER
  8
__
  9
$CELTYPE
  6
BYLAYER
  9
$CECOLOR
 62
   256
  9
$DIMSCALE
 40
1.0
  9
$DIMASZ
 40
0.18
  9
$DIMEXO
 40
0.0625
  9
$DIMDLI
 40
0.38
  9
$DIMRND
 40
0.0
  9
$DIMDLE
 40
0.0
  9
$DIMEXE
 40
0.18
  9
$DIMTP
 40
0.0
  9
$DIMTM
 40
0.0
  9
$DIMTXT
 40
0.18
  9
$DIMCEN
 40
0.09
  9
$DIMTSZ
 40
0.0
  9
$DIMTOL
 70
     0
  9
$DIMLIM
 70
     0
  9
$DIMTIH
 70
     1
  9
$DIMTOH
 70
     1
  9
$DIMSE1
 70
     0
  9
$DIMSE2
 70
     0
  9
$DIMTAD
 70
     0
  9
$DIMZIN
 70
     0
  9
$DIMBLK
  1

  9
$DIMASO
 70
     1
  9
$DIMSHO
 70
     1
  9
$DIMPOST
  1

  9
$DIMAPOST
  1

  9
$DIMALT
 70
     0
  9
$DIMALTD
 70
     2
  9
$DIMALTF
 40
25.4
  9
$DIMLFAC
 40
1.0
  9
$DIMTOFL
 70
     0
  9
$DIMTVP
 40
0.0
  9
$DIMTIX
 70
     0
  9
$DIMSOXD
 70
     0
  9
$DIMSAH
 70
     0
  9
$DIMBLK1
  1

  9
$DIMBLK2
  1

  9
$DIMSTYLE
  2
STANDARD
  9
$DIMCLRD
 70
     0
  9
$DIMCLRE
 70
     0
  9
$DIMCLRT
 70
     0
  9
$DIMTFAC
 40
1.0
  9
$DIMGAP
 40
0.09
  9
$LUNITS
 70
     2
  9
$LUPREC
 70
     4
  9
$SKETCHINC
 40
0.1
  9
$FILLETRAD
 40
0.5
  9
$AUNITS
 70
     0
  9
$AUPREC
 70
     0
  9
$MENU
  1
.
  9
$ELEVATION
 40
0.0
  9
$PELEVATION
 40
0.0
  9
$THICKNESS
 40
0.0
  9
$LIMCHECK
 70
     0
  9
$CHAMFERA
 40
0.5
  9
$CHAMFERB
 40
0.5
  9
$SKPOLY
 70
     0
  9
$TDCREATE
 40
2456237.81648147
  9
$TDUPDATE
 40
2456237.81650463
  9
$TDINDWG
 40
0.0000000116
  9
$TDUSRTIMER
 40
0.0000000116
  9
$USRTIMER
 70
     1
  9
$ANGBASE
 50
0.0
  9
$ANGDIR
 70
     0
  9
$PDMODE
 70
     1
  9
$PDSIZE
 40
-2.0
  9
$PLINEWID
 40
0.0
  9
$COORDS
 70
     1
  9
$SPLFRAME
 70
     0
  9
$SPLINETYPE
 70
     6
  9
$SPLINESEGS
 70
     8
  9
$ATTDIA
 70
     0
  9
$ATTREQ
 70
     1
  9
$HANDLING
 70
     1
  9
$HANDSEED
  5
648
  9
$SURFTAB1
 70
     6
  9
$SURFTAB2
 70
     6
  9
$SURFTYPE
 70
     6
  9
$SURFU
 70
     6
  9
$SURFV
 70
     6
  9
$UCSNAME
  2

  9
$UCSORG
 10
0.0
 20
0.0
 30
0.0
  9
$UCSXDIR
 10
1.0
 20
0.0
 30
0.0
  9
$UCSYDIR
 10
0.0
 20
1.0
 30
0.0
  9
$PUCSNAME
  2

  9
$PUCSORG
 10
0.0
 20
0.0
 30
0.0
  9
$PUCSXDIR
 10
1.0
 20
0.0
 30
0.0
  9
$PUCSYDIR
 10
0.0
 20
1.0
 30
0.0
  9
$USERI1
 70
     0
  9
$USERI2
 70
     0
  9
$USERI3
 70
     0
  9
$USERI4
 70
     0
  9
$USERI5
 70
     0
  9
$USERR1
 40
0.0
  9
$USERR2
 40
0.0
  9
$USERR3
 40
0.0
  9
$USERR4
 40
0.0
  9
$USERR5
 40
0.0
  9
$WORLDVIEW
 70
     1
  9
$SHADEDGE
 70
     3
  9
$SHADEDIF
 70
    70
  9
$TILEMODE
 70
     1
  9
$MAXACTVP
 70
    64
  9
$PLIMCHECK
 70
     0
  9
$PEXTMIN
 10
1.000000000000000E+20
 20
1.000000000000000E+20
 30
1.000000000000000E+20
  9
$PEXTMAX
 10
-1.000000000000000E+20
 20
-1.000000000000000E+20
 30
-1.000000000000000E+20
  9
$PLIMMIN
 10
-20.0
 20
-7.5
  9
$PLIMMAX
 10
277.0
 20
202.5
  9
$UNITMODE
 70
     0
  9
$VISRETAIN
 70
     1
  9
$PLINEGEN
 70
     0
  9
$PSLTSCALE
 70
     1
  0
ENDSEC
  0
SECTION
  2
TABLES
  0
TABLE
  2
VPORT
 70
     1
  0
VPORT
  2
*ACTIVE
 70
     0
 10
0.0
 20
0.0
 11
1.0
 21
1.0
 12
-9.077444669399995
 22
15.93401047785
 13
0.0
 23
0.0
 14
0.5
 24
0.5
 15
0.5
 25
0.5
 16
0.0
 26
0.0
 36
1.0
 17
0.0
 27
0.0
 37
0.0
 40
157.1319790443
 41
0.1130053657037363
 42
2000.0
 43
0.0
 44
0.0
 50
0.0
 51
0.0
 71
     0
 72
   100
 73
     1
 74
     3
 75
     0
 76
     0
 77
     0
 78
     0
  0
ENDTAB
  0
TABLE
  2
LTYPE
 70
    17
  0
LTYPE
  2
CONTINUOUS
 70
     0
  3
Solid line
 72
    65
 73
     0
 40
0.0
  0
LTYPE
  2
ISO-02___
 70
     0
  3

 72
    65
 73
     2
 40
0.3
 49
0.24
 49
-0.06
  0
LTYPE
  2
ISO-03_____
 70
     0
  3

 72
    65
 73
     2
 40
0.6
 49
0.24
 49
-0.36
  0
LTYPE
  2
ISO-04______
 70
     0
  3

 72
    65
 73
     4
 40
0.6100000000000001
 49
0.48
 49
-0.0600000000000001
 49
0.01
 49
-0.0600000000000001
  0
LTYPE
  2
ISO-05______
 70
     0
  3

 72
    65
 73
     6
 40
0.6800000000000002
 49
0.48
 49
-0.0600000000000001
 49
0.01
 49
-0.0600000000000001
 49
0.01
 49
-0.0600000000000001
  0
LTYPE
  2
ISO-06______
 70
     0
  3

 72
    65
 73
     8
 40
0.7500000000000002
 49
0.48
 49
-0.0600000000000001
 49
0.01
 49
-0.0600000000000001
 49
0.01
 49
-0.0600000000000001
 49
0.01
 49
-0.0600000000000001
  0
LTYPE
  2
ISO-07___
 70
     0
  3

 72
    65
 73
     2
 40
0.07
 49
0.01
 49
-0.06
  0
LTYPE
  2
ISO-08_____
 70
     0
  3

 72
    65
 73
     4
 40
0.72
 49
0.48
 49
-0.0600000000000001
 49
0.12
 49
-0.0599999999999999
  0
LTYPE
  2
ISO-09_____
 70
     0
  3

 72
    65
 73
     6
 40
0.8999999999999999
 49
0.48
 49
-0.0600000000000001
 49
0.12
 49
-0.0599999999999999
 49
0.12
 49
-0.0599999999999999
  0
LTYPE
  2
ISO-10______
 70
     0
  3

 72
    65
 73
     4
 40
0.37
 49
0.24
 49
-0.06
 49
0.01
 49
-0.06
  0
LTYPE
  2
ISO-11_______
 70
     0
  3

 72
    65
 73
     6
 40
0.6700000000000002
 49
0.24
 49
-0.06
 49
0.2400000000000001
 49
-0.0600000000000001
 49
0.01
 49
-0.0600000000000001
  0
LTYPE
  2
ISO-12______
 70
     0
  3

 72
    65
 73
     6
 40
0.44
 49
0.24
 49
-0.06
 49
0.01
 49
-0.06
 49
0.01
 49
-0.06
  0
LTYPE
  2
ISO-13_______
 70
     0
  3

 72
    65
 73
     8
 40
0.7400000000000002
 49
0.24
 49
-0.06
 49
0.2400000000000001
 49
-0.0600000000000001
 49
0.01
 49
-0.0600000000000001
 49
0.01
 49
-0.0600000000000001
  0
LTYPE
  2
ISO-14______
 70
     0
  3

 72
    65
 73
     8
 40
0.51
 49
0.24
 49
-0.06
 49
0.01
 49
-0.06
 49
0.01
 49
-0.06
 49
0.01
 49
-0.06
  0
LTYPE
  2
ISO-15_______
 70
     0
  3

 72
    65
 73
    10
 40
0.8100000000000003
 49
0.24
 49
-0.06
 49
0.2400000000000001
 49
-0.0600000000000001
 49
0.01
 49
-0.0600000000000001
 49
0.01
 49
-0.0600000000000001
 49
0.01
 49
-0.0600000000000001
  0
LTYPE
  2
VW-01____
 70
     0
  3

 72
    65
 73
     2
 40
0.166624
 49
0.083312
 49
-0.083312
  0
LTYPE
  2
VW-02____
 70
     0
  3

 72
    65
 73
     2
 40
0.27774
 49
0.194428
 49
-0.083312
  0
ENDTAB
  0
TABLE
  2
LAYER
 70
     3
  0
LAYER
  2
0
 70
     0
 62
     7
  6
CONTINUOUS
  0
LAYER
  2
__
 70
     0
 62
     7
  6
CONTINUOUS
  0
LAYER
  2
__-1
 70
     0
 62
     7
  6
CONTINUOUS
  0
ENDTAB
  0
TABLE
  2
STYLE
 70
     1
  0
STYLE
  2
STANDARD
 70
     0
 40
0.0
 41
1.0
 50
0.0
 71
     0
 42
0.2
  3
txt
  4
BIGFONT.SHX
  0
ENDTAB
  0
TABLE
  2
VIEW
 70
     0
  0
ENDTAB
  0
TABLE
  2
UCS
 70
     0
  0
ENDTAB
  0
TABLE
  2
APPID
 70
     1
  0
APPID
  2
ACAD
 70
     0
  0
ENDTAB
  0
TABLE
  2
DIMSTYLE
 70
     1
  0
DIMSTYLE
  2
STANDARD
 70
     0
  3

  4

  5

  6

  7

 40
1.0
 41
0.18
 42
0.0625
 43
0.38
 44
0.18
 45
0.0
 46
0.0
 47
0.0
 48
0.0
140
0.18
141
0.09
142
0.0
143
25.4
144
1.0
145
0.0
146
1.0
147
0.09
 71
     0
 72
     0
 73
     1
 74
     1
 75
     0
 76
     0
 77
     0
 78
     0
170
     0
171
     2
172
     0
173
     0
174
     0
175
     0
176
     0
177
     0
178
     0
  0
ENDTAB
  0
ENDSEC
  0
SECTION
  2
BLOCKS
  0
BLOCK
  8
0
  2
$MODEL_SPACE
 70
     0
 10
0.0
 20
0.0
 30
0.0
  3
$MODEL_SPACE
  1

  0
ENDBLK
  5
21
  8
0
  0
BLOCK
 67
     1
  8
0
  2
$PAPER_SPACE
 70
     0
 10
0.0
 20
0.0
 30
0.0
  3
$PAPER_SPACE
  1

  0
ENDBLK
  5
1D
 67
     1
  8
0
  0
ENDSEC
  0
SECTION
  2
ENTITIES
  0
LINE
  5
52
  8
0
  6
CONTINUOUS
 62
    30
 10
-2.285017980600003
 20
94.20740620269999
 30
0.0
 11
-11.12385287710004
 21
89.10485542769999
 31
0.0
  0
LINE
  5
53
  8
0
  6
CONTINUOUS
 62
    30
 10
-4.874360656000022
 20
78.2792367925
 30
0.0
 11
-1.652770307299988
 21
80.13902131420002
 31
0.0
  0
LINE
  5
54
  8
0
  6
CONTINUOUS
 62
    30
 10
5.259145495899986
 20
86.54089059749998
 30
0.0
 11
5.259145578199991
 21
86.65153170410002
 31
0.0
  0
LINE
  5
55
  8
0
  6
CONTINUOUS
 62
    30
 10
1.193942263300016
 20
93.69343368260002
 30
0.0
 11
0.8404464373999758
 21
93.89756350599998
 31
0.0
  0
LINE
  5
56
  8
0
  6
CONTINUOUS
 62
    30
 10
-17.9558362766
 20
70.72746166079998
 30
0.0
 11
-5.935021001700022
 21
77.66693060820001
 31
0.0
  0
LINE
  5
57
  8
0
  6
CONTINUOUS
 62
    30
 10
-12.18451322280004
 20
88.49254924349998
 30
0.0
 11
-24.20532849770001
 21
81.55308029600002
 31
0.0
  0
LINE
  5
58
  8
0
  6
CONTINUOUS
 62
    30
 10
-11.12385287710004
 20
89.10485542769999
 30
0.0
 11
-12.18451322280004
 21
88.49254924349998
 31
0.0
  0
LINE
  5
59
  8
0
  6
CONTINUOUS
 62
    30
 10
-5.935021001700022
 20
77.66693060820001
 30
0.0
 11
-4.874360656000022
 21
78.2792367925
 31
0.0
  0
LINE
  5
5A
  8
0
  6
CONTINUOUS
 62
    30
 10
4.163647114900016
 20
78.30345875469999
 30
0.0
 11
4.517143101099975
 21
78.5075886706
 31
0.0
  0
LINE
  5
5B
  8
0
  6
CONTINUOUS
 62
    30
 10
7.34511066120001
 20
83.4063094599
 30
0.0
 11
7.34511033199999
 21
83.81451339260002
 31
0.0
  0
LINE
  5
5C
  8
0
  6
CONTINUOUS
 62
    30
 10
-1.849056906499982
 20
80.25233837590002
 30
0.0
 11
1.913312740799995
 21
78.08036861020003
 31
0.0
  0
LINE
  5
5D
  8
0
  6
CONTINUOUS
 62
    30
 10
6.4129471663
 20
85.8748096626
 30
0.0
 11
2.472093518099996
 21
88.14981604880001
 31
0.0
  0
LINE
  5
5E
  8
0
  6
CONTINUOUS
 62
    30
 10
7.112520149600016
 20
-40.17710683910002
 30
0.0
 11
7.112520149600016
 21
-37.31921428959998
 31
0.0
  0
LINE
  5
5F
  8
0
  6
CONTINUOUS
 62
    30
 10
-2.887479521200021
 20
-37.31921428959998
 30
0.0
 11
-2.887479521200021
 21
-40.17710683910002
 31
0.0
  0
LINE
  5
60
  8
0
  6
CONTINUOUS
 62
    30
 10
6.612520231899964
 20
-48.34251477549998
 30
0.0
 11
6.612520231899964
 21
-41.43527596249999
 31
0.0
  0
LINE
  5
61
  8
0
  6
CONTINUOUS
 62
    30
 10
-2.387479603500026
 20
-41.43527596249999
 30
0.0
 11
-2.387479603500026
 21
-48.34251477549998
 31
0.0
  0
LINE
  5
62
  8
0
  6
CONTINUOUS
 62
    30
 10
7.112520149600016
 20
-51.2004073251
 30
0.0
 11
7.112520149600016
 21
-48.34251477549998
 31
0.0
  0
LINE
  5
63
  8
0
  6
CONTINUOUS
 62
    30
 10
-2.887479521200021
 20
-48.34251477549998
 30
0.0
 11
-2.887479521200021
 21
-51.2004073251
 31
0.0
  0
LINE
  5
64
  8
0
  6
CONTINUOUS
 62
    30
 10
0.1125203141999691
 20
79.119946476
 30
0.0
 11
0.1125203141999691
 21
-37.31921428959998
 31
0.0
  0
LINE
  5
65
  8
0
  6
CONTINUOUS
 62
    30
 10
4.112520314199969
 20
-37.31921428959998
 30
0.0
 11
4.112520314199969
 21
78.27440908019997
 31
0.0
  0
LINE
  5
66
  8
0
  6
CONTINUOUS
 62
    30
 10
3.862520355399965
 20
-57.73273413039999
 30
0.0
 11
3.862520355399965
 21
-53.9042780021
 31
0.0
  0
LINE
  5
67
  8
0
  6
CONTINUOUS
 62
    30
 10
0.3625202731000172
 20
-53.9042780021
 30
0.0
 11
0.3625202731000172
 21
-57.73273413039999
 31
0.0
  0
LINE
  5
68
  8
0
  6
CONTINUOUS
 62
    30
 10
3.599164743500012
 20
-58.25630067340001
 30
0.0
 11
3.626385351500005
 21
-58.21579923140001
 31
0.0
  0
LINE
  5
69
  8
0
  6
CONTINUOUS
 62
    30
 10
3.862520355399965
 20
-58.54927507619999
 30
0.0
 11
3.862520355399965
 21
-58.30431286850001
 31
0.0
  0
LINE
  5
6A
  8
0
  6
CONTINUOUS
 62
    30
 10
0.3625202731000172
 20
-58.30431286850001
 30
0.0
 11
0.3625202731000172
 21
-58.54927507619999
 31
0.0
  0
LINE
  5
6B
  8
0
  6
CONTINUOUS
 62
    30
 10
3.60683069549998
 20
-60.92354750409999
 30
0.0
 11
3.429867603099979
 21
-59.19399235050003
 31
0.0
  0
LINE
  5
6C
  8
0
  6
CONTINUOUS
 62
    30
 10
0.7961819977999767
 20
-59.18407119130001
 30
0.0
 11
0.6190711034000174
 21
-60.9180574028
 31
0.0
  0
LINE
  5
6D
  8
0
  6
CONTINUOUS
 62
    30
 10
3.612520231899964
 20
-61.40716781589998
 30
0.0
 11
3.612520231899964
 21
-60.99889734300001
 31
0.0
  0
LINE
  5
6E
  8
0
  6
CONTINUOUS
 62
    30
 10
0.6125203964999741
 20
-60.99889734300001
 30
0.0
 11
0.6125203964999741
 21
-61.40716781589998
 31
0.0
  0
LINE
  5
6F
  8
0
  6
CONTINUOUS
 62
    30
 10
1.051687774100003
 20
-62.01937440429998
 30
0.0
 11
2.112520314199969
 21
-62.63197904430001
 31
0.0
  0
LINE
  5
70
  8
0
  6
CONTINUOUS
 62
    30
 10
2.112520314199969
 20
-62.63197904430001
 30
0.0
 11
3.173352854299992
 21
-62.01937440429998
 31
0.0
  0
POLYLINE
  5
71
  8
0
  6
CONTINUOUS
 62
    30
 66
     1
 10
0.0
 20
0.0
 30
0.0
  0
VERTEX
  5
393
  8
0
  6
CONTINUOUS
 62
    30
 10
-3.579689400599989
 20
81.14077685389998
 30
0.0
  0
VERTEX
  5
394
  8
0
  6
CONTINUOUS
 62
    30
 10
-3.634099747300013
 20
81.97052730529998
 30
0.0
  0
VERTEX
  5
395
  8
0
  6
CONTINUOUS
 62
    30
 10
-3.79599106080002
 20
82.842674837
 30
0.0
  0
VERTEX
  5
396
  8
0
  6
CONTINUOUS
 62
    30
 10
-4.061377088900031
 20
83.73573023500001
 30
0.0
  0
VERTEX
  5
397
  8
0
  6
CONTINUOUS
 62
    30
 10
-4.423722929800022
 20
84.62771854089999
 30
0.0
  0
VERTEX
  5
398
  8
0
  6
CONTINUOUS
 62
    30
 10
-4.874106787100004
 20
85.49666178860002
 30
0.0
  0
VERTEX
  5
399
  8
0
  6
CONTINUOUS
 62
    30
 10
-5.401438277500006
 20
86.32116739129998
 30
0.0
  0
VERTEX
  5
39A
  8
0
  6
CONTINUOUS
 62
    30
 10
-5.992733208200036
 20
87.08093962290002
 30
0.0
  0
VERTEX
  5
39B
  8
0
  6
CONTINUOUS
 62
    30
 10
-6.633431818500014
 20
87.75726751920001
 30
0.0
  0
VERTEX
  5
39C
  8
0
  6
CONTINUOUS
 62
    30
 10
-7.307757687100036
 20
88.33348758689999
 30
0.0
  0
VERTEX
  5
39D
  8
0
  6
CONTINUOUS
 62
    30
 10
-7.999106601899996
 20
88.79542730610001
 30
0.0
  0
VERTEX
  5
39E
  8
0
  6
CONTINUOUS
 62
    30
 10
-8.690455846100008
 20
89.1317022435
 30
0.0
  0
VERTEX
  5
39F
  8
0
  6
CONTINUOUS
 62
    30
 10
-9.364781714599985
 20
89.33404225160001
 30
0.0
  0
VERTEX
  5
3A0
  8
0
  6
CONTINUOUS
 62
    30
 10
-10.00548032500001
 20
89.39744922509999
 30
0.0
  0
VERTEX
  5
3A1
  8
0
  6
CONTINUOUS
 62
    30
 10
-10.59677492640003
 20
89.32037139879998
 30
0.0
  0
VERTEX
  5
3A2
  8
0
  6
CONTINUOUS
 62
    30
 10
-11.12385287710004
 20
89.10485542769999
 30
0.0
  0
SEQEND
  5
392
  8
0
  6
CONTINUOUS
 62
    30
  0
ARC
  5
83
  8
0
  6
CONTINUOUS
 62
    30
 10
-6.674727541899983
 20
80.81744198680002
 30
0.0
 40
3.111881509982729
 50
305.3483473274003
 51
5.963986685799681
  0
POLYLINE
  5
84
  8
0
  6
CONTINUOUS
 62
    30
 66
     1
 10
0.0
 20
0.0
 30
0.0
  0
VERTEX
  5
3A4
  8
0
  6
CONTINUOUS
 62
    30
 10
5.251626728600002
 20
86.54522204080001
 30
0.0
  0
VERTEX
  5
3A5
  8
0
  6
CONTINUOUS
 62
    30
 10
5.204735149300007
 20
87.07307808019999
 30
0.0
  0
VERTEX
  5
3A6
  8
0
  6
CONTINUOUS
 62
    30
 10
5.042843835799999
 20
87.945225612
 30
0.0
  0
VERTEX
  5
3A7
  8
0
  6
CONTINUOUS
 62
    30
 10
4.777457807699989
 20
88.83828100990002
 30
0.0
  0
VERTEX
  5
3A8
  8
0
  6
CONTINUOUS
 62
    30
 10
4.415111966799998
 20
89.73026931589999
 30
0.0
  0
VERTEX
  5
3A9
  8
0
  6
CONTINUOUS
 62
    30
 10
3.964728109399971
 20
90.59921256349998
 30
0.0
  0
VERTEX
  5
3AA
  8
0
  6
CONTINUOUS
 62
    30
 10
3.437396618999969
 20
91.42371816629998
 30
0.0
  0
VERTEX
  5
3AB
  8
0
  6
CONTINUOUS
 62
    30
 10
2.846101688399983
 20
92.18349039779997
 30
0.0
  0
VERTEX
  5
3AC
  8
0
  6
CONTINUOUS
 62
    30
 10
2.205403078000018
 20
92.85981829410002
 30
0.0
  0
VERTEX
  5
3AD
  8
0
  6
CONTINUOUS
 62
    30
 10
1.531077209399996
 20
93.4360383618
 30
0.0
  0
VERTEX
  5
3AE
  8
0
  6
CONTINUOUS
 62
    30
 10
0.8397282945999791
 20
93.89797808100002
 30
0.0
  0
VERTEX
  5
3AF
  8
0
  6
CONTINUOUS
 62
    30
 10
0.1483790505000115
 20
94.2342530185
 30
0.0
  0
VERTEX
  5
3B0
  8
0
  6
CONTINUOUS
 62
    30
 10
-0.5259468181000102
 20
94.43659302660001
 30
0.0
  0
VERTEX
  5
3B1
  8
0
  6
CONTINUOUS
 62
    30
 10
-1.166645428399988
 20
94.5
 30
0.0
  0
VERTEX
  5
3B2
  8
0
  6
CONTINUOUS
 62
    30
 10
-1.757940029800011
 20
94.42292217379998
 30
0.0
  0
VERTEX
  5
3B3
  8
0
  6
CONTINUOUS
 62
    30
 10
-2.285017980600003
 20
94.20740620269999
 30
0.0
  0
SEQEND
  5
3A3
  8
0
  6
CONTINUOUS
 62
    30
  0
POLYLINE
  5
96
  8
0
  6
CONTINUOUS
 62
    30
 66
     1
 10
0.0
 20
0.0
 30
0.0
  0
VERTEX
  5
3B5
  8
0
  6
CONTINUOUS
 62
    30
 10
-1.750958799487989
 20
80.195709318507
 30
0.0
  0
VERTEX
  5
3B6
  8
0
  6
CONTINUOUS
 62
    30
 10
-1.756983949224752
 20
80.19600601516557
 30
0.0
 42
-0.0071375999345861
  0
VERTEX
  5
3B7
  8
0
  6
CONTINUOUS
 62
    30
 10
-1.787294573239365
 20
80.19793266895974
 30
0.0
  0
VERTEX
  5
3B8
  8
0
  6
CONTINUOUS
 62
    30
 10
-1.792048159102078
 20
80.19830302212687
 30
0.0
 42
-0.009283213843326
  0
VERTEX
  5
3B9
  8
0
  6
CONTINUOUS
 62
    30
 10
-1.812786901172785
 20
80.20030675938762
 30
0.0
  0
VERTEX
  5
3BA
  8
0
  6
CONTINUOUS
 62
    30
 10
-1.812925605213451
 20
80.20032276487896
 30
0.0
 42
-0.0128504685957839
  0
VERTEX
  5
3BB
  8
0
  6
CONTINUOUS
 62
    30
 10
-1.833275705224025
 20
80.20320267172181
 30
0.0
  0
VERTEX
  5
3BC
  8
0
  6
CONTINUOUS
 62
    30
 10
-1.83341211509912
 20
80.20322556590777
 30
0.0
 42
-0.0170946145928169
  0
VERTEX
  5
3BD
  8
0
  6
CONTINUOUS
 62
    30
 10
-1.853277318382368
 20
80.20726216192196
 30
0.0
  0
VERTEX
  5
3BE
  8
0
  6
CONTINUOUS
 62
    30
 10
-1.853377398349865
 20
80.20728608702325
 30
0.0
 42
-0.021534092283176
  0
VERTEX
  5
3BF
  8
0
  6
CONTINUOUS
 62
    30
 10
-1.872667438814176
 20
80.21278537980544
 30
0.0
 42
-0.0261293299677632
  0
VERTEX
  5
3C0
  8
0
  6
CONTINUOUS
 62
    30
 10
-1.891338417657835
 20
80.22009223199386
 30
0.0
  0
VERTEX
  5
3C1
  8
0
  6
CONTINUOUS
 62
    30
 10
-1.89272834692045
 20
80.2207217468534
 30
0.0
 42
-0.0380394252124752
  0
VERTEX
  5
3C2
  8
0
  6
CONTINUOUS
 62
    30
 10
-1.912952662598356
 20
80.23180488804161
 30
0.0
  0
VERTEX
  5
3C3
  8
0
  6
CONTINUOUS
 62
    30
 10
-1.914211294590132
 20
80.23262475740697
 30
0.0
 42
-0.0333719889430674
  0
VERTEX
  5
3C4
  8
0
  6
CONTINUOUS
 62
    30
 10
-1.93506228537506
 20
80.24828173934561
 30
0.0
  0
VERTEX
  5
3C5
  8
0
  6
CONTINUOUS
 62
    30
 10
-1.935227440428974
 20
80.24842392337612
 30
0.0
 42
-0.0289491550051221
  0
VERTEX
  5
3C6
  8
0
  6
CONTINUOUS
 62
    30
 10
-1.954294059613559
 20
80.26686335402181
 30
0.0
  0
VERTEX
  5
3C7
  8
0
  6
CONTINUOUS
 62
    30
 10
-1.95472694765482
 20
80.26733343031933
 30
0.0
 42
-0.0244552358866693
  0
VERTEX
  5
3C8
  8
0
  6
CONTINUOUS
 62
    30
 10
-1.97254565513335
 20
80.28868990743463
 30
0.0
  0
VERTEX
  5
3C9
  8
0
  6
CONTINUOUS
 62
    30
 10
-1.973021220879218
 20
80.28932013402283
 30
0.0
 42
-0.020302779962151
  0
VERTEX
  5
3CA
  8
0
  6
CONTINUOUS
 62
    30
 10
-1.989764074593514
 20
80.31348924053914
 30
0.0
  0
VERTEX
  5
3CB
  8
0
  6
CONTINUOUS
 62
    30
 10
-1.990241221236488
 20
80.31424152114107
 30
0.0
 42
-0.01667025437068
  0
VERTEX
  5
3CC
  8
0
  6
CONTINUOUS
 62
    30
 10
-2.006060076204803
 20
80.34112287744253
 30
0.0
  0
VERTEX
  5
3CD
  8
0
  6
CONTINUOUS
 62
    30
 10
-2.006515404678368
 20
80.34195920972488
 30
0.0
 42
-0.0135868613143914
  0
VERTEX
  5
3CE
  8
0
  6
CONTINUOUS
 62
    30
 10
-2.021546925231419
 20
80.37144932365703
 30
0.0
  0
VERTEX
  5
3CF
  8
0
  6
CONTINUOUS
 62
    30
 10
-2.022010942720556
 20
80.37242426963692
 30
0.0
 42
-0.0110917037265565
  0
VERTEX
  5
3D0
  8
0
  6
CONTINUOUS
 62
    30
 10
-2.036455288101679
 20
80.40459327754066
 30
0.0
  0
VERTEX
  5
3D1
  8
0
  6
CONTINUOUS
 62
    30
 10
-2.036976163939841
 20
80.40582577521056
 30
0.0
 42
-0.0104617571500471
  0
VERTEX
  5
3D2
  8
0
  6
CONTINUOUS
 62
    30
 10
-2.051010958940786
 20
80.4410739320562
 30
0.0
  0
VERTEX
  5
3D3
  8
0
  6
CONTINUOUS
 62
    30
 10
-2.05534769980423
 20
80.45266552945657
 30
0.0
 42
-0.0176144267275759
  0
VERTEX
  5
3D4
  8
0
  6
CONTINUOUS
 62
    30
 10
-2.07522423900534
 20
80.51209101549307
 30
0.0
  0
VERTEX
  5
3D5
  8
0
  6
CONTINUOUS
 62
    30
 10
-2.075742222634204
 20
80.5138424242991
 30
0.0
 42
-0.0078198225213393
  0
VERTEX
  5
3D6
  8
0
  6
CONTINUOUS
 62
    30
 10
-2.093561036721404
 20
80.57774986992968
 30
0.0
  0
VERTEX
  5
3D7
  8
0
  6
CONTINUOUS
 62
    30
 10
-2.094561626692865
 20
80.58156834936185
 30
0.0
 42
-0.013475656893793
  0
VERTEX
  5
3D8
  8
0
  6
CONTINUOUS
 62
    30
 10
-2.111433731413007
 20
80.65384625880505
 30
0.0
  0
VERTEX
  5
3D9
  8
0
  6
CONTINUOUS
 62
    30
 10
-2.114534063509074
 20
80.66895608924335
 30
0.0
 42
-0.0095984220538709
  0
VERTEX
  5
3DA
  8
0
  6
CONTINUOUS
 62
    30
 10
-2.131336283595715
 20
80.75965240291228
 30
0.0
  0
VERTEX
  5
3DB
  8
0
  6
CONTINUOUS
 62
    30
 10
-2.131348682660528
 20
80.75972733491557
 30
0.0
 42
-0.0069531428108875
  0
VERTEX
  5
3DC
  8
0
  6
CONTINUOUS
 62
    30
 10
-2.145118486307865
 20
80.85078785997732
 30
0.0
 42
-0.0059586894923981
  0
VERTEX
  5
3DD
  8
0
  6
CONTINUOUS
 62
    30
 10
-2.156532770311243
 20
80.94217591429795
 30
0.0
  0
VERTEX
  5
3DE
  8
0
  6
CONTINUOUS
 62
    30
 10
-2.156891288905712
 20
80.9453538944106
 30
0.0
 42
-0.0051499063132568
  0
VERTEX
  5
3DF
  8
0
  6
CONTINUOUS
 62
    30
 10
-2.16692422804688
 20
81.04333728226882
 30
0.0
  0
VERTEX
  5
3E0
  8
0
  6
CONTINUOUS
 62
    30
 10
-2.167214659072243
 20
81.04649423819367
 30
0.0
 42
-0.0044895884596719
  0
VERTEX
  5
3E1
  8
0
  6
CONTINUOUS
 62
    30
 10
-2.175881073487709
 20
81.15097269687243
 30
0.0
  0
VERTEX
  5
3E2
  8
0
  6
CONTINUOUS
 62
    30
 10
-2.176112320601646
 20
81.15410125646557
 30
0.0
 42
-0.0039440455380776
  0
VERTEX
  5
3E3
  8
0
  6
CONTINUOUS
 62
    30
 10
-2.183428504765887
 20
81.26497236479219
 30
0.0
  0
VERTEX
  5
3E4
  8
0
  6
CONTINUOUS
 62
    30
 10
-2.183608208472066
 20
81.26806698285631
 30
0.0
 42
-0.0034900555631198
  0
VERTEX
  5
3E5
  8
0
  6
CONTINUOUS
 62
    30
 10
-2.189591426518902
 20
81.3852268029715
 30
0.0
  0
VERTEX
  5
3E6
  8
0
  6
CONTINUOUS
 62
    30
 10
-2.189726379813038
 20
81.38828884658531
 30
0.0
 42
-0.0031773565653414
  0
VERTEX
  5
3E7
  8
0
  6
CONTINUOUS
 62
    30
 10
-2.194377810908132
 20
81.51164407677237
 30
0.0
  0
VERTEX
  5
3E8
  8
0
  6
CONTINUOUS
 62
    30
 10
-2.19555918251632
 20
81.54933300418745
 30
0.0
 42
-0.0053812218886689
  0
VERTEX
  5
3E9
  8
0
  6
CONTINUOUS
 62
    30
 10
-2.19964975424755
 20
81.74813967383649
 30
0.0
  0
VERTEX
  5
3EA
  8
0
  6
CONTINUOUS
 62
    30
 10
-2.200056558255881
 20
81.7896050210359
 30
0.0
 42
-0.0046110174276894
  0
VERTEX
  5
3EB
  8
0
  6
CONTINUOUS
 62
    30
 10
-2.200222363286583
 20
82.0713879399992
 30
0.0
  0
VERTEX
  5
3EC
  8
0
  6
CONTINUOUS
 62
    30
 10
-2.200137358975638
 20
82.08123350117333
 30
0.0
 42
-0.0041292725486215
  0
VERTEX
  5
3ED
  8
0
  6
CONTINUOUS
 62
    30
 10
-2.195045043511457
 20
82.38266701574318
 30
0.0
  0
VERTEX
  5
3EE
  8
0
  6
CONTINUOUS
 62
    30
 10
-2.194874075305592
 20
82.38946337380563
 30
0.0
 42
-0.0037567770776129
  0
VERTEX
  5
3EF
  8
0
  6
CONTINUOUS
 62
    30
 10
-2.184584275562343
 20
82.70437023460758
 30
0.0
  0
VERTEX
  5
3F0
  8
0
  6
CONTINUOUS
 62
    30
 10
-2.184500603868031
 20
82.7064516603127
 30
0.0
 42
-0.0035216034514112
  0
VERTEX
  5
3F1
  8
0
  6
CONTINUOUS
 62
    30
 10
-2.169431347821322
 20
83.02533792126161
 30
0.0
  0
VERTEX
  5
3F2
  8
0
  6
CONTINUOUS
 62
    30
 10
-2.164806733135293
 20
83.11047870151893
 30
0.0
 42
-0.007188987465059
  0
VERTEX
  5
3F3
  8
0
  6
CONTINUOUS
 62
    30
 10
-2.131217102456853
 20
83.59905740994925
 30
0.0
  0
VERTEX
  5
3F4
  8
0
  6
CONTINUOUS
 62
    30
 10
-2.12436579814727
 20
83.68139427192476
 30
0.0
 42
-0.0040771467826305
  0
VERTEX
  5
3F5
  8
0
  6
CONTINUOUS
 62
    30
 10
-2.091529308087615
 20
84.04054907647603
 30
0.0
 42
-0.0046473415069727
  0
VERTEX
  5
3F6
  8
0
  6
CONTINUOUS
 62
    30
 10
-2.052431680129565
 20
84.39907271028936
 30
0.0
  0
VERTEX
  5
3F7
  8
0
  6
CONTINUOUS
 62
    30
 10
-2.046701964761779
 20
84.44743832615535
 30
0.0
 42
-0.0052169892166396
  0
VERTEX
  5
3F8
  8
0
  6
CONTINUOUS
 62
    30
 10
-2.011639105679052
 20
84.71911600938623
 30
0.0
  0
VERTEX
  5
3F9
  8
0
  6
CONTINUOUS
 62
    30
 10
-2.005259261150337
 20
84.76478978774028
 30
0.0
 42
-0.0028428778495247
  0
VERTEX
  5
3FA
  8
0
  6
CONTINUOUS
 62
    30
 10
-1.979098939451887
 20
84.94460531678979
 30
0.0
 42
-0.0029795769975086
  0
VERTEX
  5
3FB
  8
0
  6
CONTINUOUS
 62
    30
 10
-1.950846554069549
 20
85.12410374162907
 30
0.0
  0
VERTEX
  5
3FC
  8
0
  6
CONTINUOUS
 62
    30
 10
-1.949674923430592
 20
85.13126929009141
 30
0.0
 42
-0.0038367666832881
  0
VERTEX
  5
3FD
  8
0
  6
CONTINUOUS
 62
    30
 10
-1.91652547326973
 20
85.32467607288893
 30
0.0
  0
VERTEX
  5
3FE
  8
0
  6
CONTINUOUS
 62
    30
 10
-1.915125159343297
 20
85.33248566003806
 30
0.0
 42
-0.0043794930245029
  0
VERTEX
  5
3FF
  8
0
  6
CONTINUOUS
 62
    30
 10
-1.876140102656251
 20
85.5394544274935
 30
0.0
  0
VERTEX
  5
400
  8
0
  6
CONTINUOUS
 62
    30
 10
-1.875949723428492
 20
85.54041863195394
 30
0.0
 42
-0.0049043619817704
  0
VERTEX
  5
401
  8
0
  6
CONTINUOUS
 62
    30
 10
-1.833528752314209
 20
85.74470140876693
 30
0.0
  0
VERTEX
  5
402
  8
0
  6
CONTINUOUS
 62
    30
 10
-1.833302273380907
 20
85.74574072767497
 30
0.0
 42
-0.0054596959903885
  0
VERTEX
  5
403
  8
0
  6
CONTINUOUS
 62
    30
 10
-1.787132495547667
 20
85.94702460013747
 30
0.0
  0
VERTEX
  5
404
  8
0
  6
CONTINUOUS
 62
    30
 10
-1.786867728969828
 20
85.94812367477242
 30
0.0
 42
-0.0060469699243893
  0
VERTEX
  5
405
  8
0
  6
CONTINUOUS
 62
    30
 10
-1.736635147706409
 20
86.14609770500385
 30
0.0
  0
VERTEX
  5
406
  8
0
  6
CONTINUOUS
 62
    30
 10
-1.736330812784624
 20
86.1472390501185
 30
0.0
 42
-0.0066683508549063
  0
VERTEX
  5
407
  8
0
  6
CONTINUOUS
 62
    30
 10
-1.681720351842131
 20
86.34159450227392
 30
0.0
  0
VERTEX
  5
408
  8
0
  6
CONTINUOUS
 62
    30
 10
-1.680441049890758
 20
86.34592485373344
 30
0.0
 42
-0.0073218432422861
  0
VERTEX
  5
409
  8
0
  6
CONTINUOUS
 62
    30
 10
-1.623100579073594
 20
86.53005152625983
 30
0.0
  0
VERTEX
  5
40A
  8
0
  6
CONTINUOUS
 62
    30
 10
-1.620918108479763
 20
86.53671440066906
 30
0.0
 42
-0.0075026220129231
  0
VERTEX
  5
40B
  8
0
  6
CONTINUOUS
 62
    30
 10
-1.56270879587359
 20
86.70580210937391
 30
0.0
  0
VERTEX
  5
40C
  8
0
  6
CONTINUOUS
 62
    30
 10
-1.55425848329466
 20
86.72920195960293
 30
0.0
 42
-0.008048585725517
  0
VERTEX
  5
40D
  8
0
  6
CONTINUOUS
 62
    30
 10
-1.508469760085831
 20
86.84987935706286
 30
0.0
  0
VERTEX
  5
40E
  8
0
  6
CONTINUOUS
 62
    30
 10
-1.508174369357948
 20
86.85062161973669
 30
0.0
 42
-0.0043373694593739
  0
VERTEX
  5
40F
  8
0
  6
CONTINUOUS
 62
    30
 10
-1.460009769492331
 20
86.96865955198135
 30
0.0
 42
-0.0095044100732909
  0
VERTEX
  5
410
  8
0
  6
CONTINUOUS
 62
    30
 10
-1.408603758791026
 20
87.0853024051455
 30
0.0
  0
VERTEX
  5
411
  8
0
  6
CONTINUOUS
 62
    30
 10
-1.401770160655159
 20
87.10004245172078
 30
0.0
 42
-0.0091929446019483
  0
VERTEX
  5
412
  8
0
  6
CONTINUOUS
 62
    30
 10
-1.333603175616247
 20
87.24026357551688
 30
0.0
 42
-0.0115602014199266
  0
VERTEX
  5
413
  8
0
  6
CONTINUOUS
 62
    30
 10
-1.259683988117751
 20
87.37752201293576
 30
0.0
  0
VERTEX
  5
414
  8
0
  6
CONTINUOUS
 62
    30
 10
-1.247159176799093
 20
87.39954380405075
 30
0.0
 42
-0.0127822760866432
  0
VERTEX
  5
415
  8
0
  6
CONTINUOUS
 62
    30
 10
-1.18407992522134
 20
87.50413807934015
 30
0.0
  0
VERTEX
  5
416
  8
0
  6
CONTINUOUS
 62
    30
 10
-1.183443028948168
 20
87.50513556826221
 30
0.0
 42
-0.0067702809324504
  0
VERTEX
  5
417
  8
0
  6
CONTINUOUS
 62
    30
 10
-1.117607823105431
 20
87.60523052283
 30
0.0
 42
-0.0143272418304131
  0
VERTEX
  5
418
  8
0
  6
CONTINUOUS
 62
    30
 10
-1.047631485159438
 20
87.70242844334661
 30
0.0
  0
VERTEX
  5
419
  8
0
  6
CONTINUOUS
 62
    30
 10
-1.035732562836487
 20
87.7179954374473
 30
0.0
 42
-0.0120082819366771
  0
VERTEX
  5
41A
  8
0
  6
CONTINUOUS
 62
    30
 10
-0.9579043189191907
 20
87.81490107172093
 30
0.0
  0
VERTEX
  5
41B
  8
0
  6
CONTINUOUS
 62
    30
 10
-0.9576744951974499
 20
87.81517356029919
 30
0.0
 42
-0.0124564110154638
  0
VERTEX
  5
41C
  8
0
  6
CONTINUOUS
 62
    30
 10
-0.8756747232929456
 20
87.90762161810892
 30
0.0
  0
VERTEX
  5
41D
  8
0
  6
CONTINUOUS
 62
    30
 10
-0.8754599403741643
 20
87.90785194638595
 30
0.0
 42
-0.0129446760353744
  0
VERTEX
  5
41E
  8
0
  6
CONTINUOUS
 62
    30
 10
-0.789315005300665
 20
87.99556557457137
 30
0.0
  0
VERTEX
  5
41F
  8
0
  6
CONTINUOUS
 62
    30
 10
-0.7891297598412179
 20
87.99574467463731
 30
0.0
 42
-0.0134466205291822
  0
VERTEX
  5
420
  8
0
  6
CONTINUOUS
 62
    30
 10
-0.6988597009727755
 20
88.07844139888525
 30
0.0
 42
-0.0139463885734838
  0
VERTEX
  5
421
  8
0
  6
CONTINUOUS
 62
    30
 10
-0.6041995812766157
 20
88.1560691823794
 30
0.0
  0
VERTEX
  5
422
  8
0
  6
CONTINUOUS
 62
    30
 10
-0.6012608442019123
 20
88.15834509334616
 30
0.0
 42
-0.0162712061862838
  0
VERTEX
  5
423
  8
0
  6
CONTINUOUS
 62
    30
 10
-0.4963656067511693
 20
88.23425338915288
 30
0.0
  0
VERTEX
  5
424
  8
0
  6
CONTINUOUS
 62
    30
 10
-0.4932667284196035
 20
88.23634575862289
 30
0.0
 42
-0.0150338179484249
  0
VERTEX
  5
425
  8
0
  6
CONTINUOUS
 62
    30
 10
-0.3901372743191303
 20
88.30155330755679
 30
0.0
 42
-0.0151341158920898
  0
VERTEX
  5
426
  8
0
  6
CONTINUOUS
 62
    30
 10
-0.2832644291326174
 20
88.36042370347884
 30
0.0
  0
VERTEX
  5
427
  8
0
  6
CONTINUOUS
 62
    30
 10
-0.2831042879640222
 20
88.36050570071345
 30
0.0
 42
-0.0146056291112483
  0
VERTEX
  5
428
  8
0
  6
CONTINUOUS
 62
    30
 10
-0.1725928879287453
 20
88.41307563213134
 30
0.0
  0
VERTEX
  5
429
  8
0
  6
CONTINUOUS
 62
    30
 10
-0.1724158545630985
 20
88.41315359036958
 30
0.0
 42
-0.0141156965830996
  0
VERTEX
  5
42A
  8
0
  6
CONTINUOUS
 62
    30
 10
-0.0587074420962355
 20
88.45943978576793
 30
0.0
  0
VERTEX
  5
42B
  8
0
  6
CONTINUOUS
 62
    30
 10
-0.0585107194837917
 20
88.45951346205115
 30
0.0
 42
-0.0136650744799094
  0
VERTEX
  5
42C
  8
0
  6
CONTINUOUS
 62
    30
 10
0.0579925744069644
 20
88.49955157629971
 30
0.0
  0
VERTEX
  5
42D
  8
0
  6
CONTINUOUS
 62
    30
 10
0.0582010771810815
 20
88.49961691811461
 30
0.0
 42
-0.0132596121136179
  0
VERTEX
  5
42E
  8
0
  6
CONTINUOUS
 62
    30
 10
0.1771131354685788
 20
88.5334470588673
 30
0.0
  0
VERTEX
  5
42F
  8
0
  6
CONTINUOUS
 62
    30
 10
0.1773179152003763
 20
88.53349949091054
 30
0.0
 42
-0.012906510407855
  0
VERTEX
  5
430
  8
0
  6
CONTINUOUS
 62
    30
 10
0.2982509166698075
 20
88.56115831951463
 30
0.0
  0
VERTEX
  5
431
  8
0
  6
CONTINUOUS
 62
    30
 10
0.2984390473002065
 20
88.56119626615367
 30
0.0
 42
-0.0126490946843133
  0
VERTEX
  5
432
  8
0
  6
CONTINUOUS
 62
    30
 10
0.4210066714446183
 20
88.58270758670493
 30
0.0
  0
VERTEX
  5
433
  8
0
  6
CONTINUOUS
 62
    30
 10
0.4354076340266602
 20
88.58486109852711
 30
0.0
 42
-0.0178468659543107
  0
VERTEX
  5
434
  8
0
  6
CONTINUOUS
 62
    30
 10
0.5879381304438782
 20
88.60213209026708
 30
0.0
  0
VERTEX
  5
435
  8
0
  6
CONTINUOUS
 62
    30
 10
0.6021420760802557
 20
88.60322881236702
 30
0.0
 42
-0.0148707292008778
  0
VERTEX
  5
436
  8
0
  6
CONTINUOUS
 62
    30
 10
0.7661509755249085
 20
88.61099556651203
 30
0.0
 42
-0.013818930730443
  0
VERTEX
  5
437
  8
0
  6
CONTINUOUS
 62
    30
 10
0.9303452808699705
 20
88.60934453165939
 30
0.0
  0
VERTEX
  5
438
  8
0
  6
CONTINUOUS
 62
    30
 10
0.9308067017647943
 20
88.60932713194157
 30
0.0
 42
-0.0127938533894553
  0
VERTEX
  5
439
  8
0
  6
CONTINUOUS
 62
    30
 10
1.095610969984713
 20
88.5988847977905
 30
0.0
  0
VERTEX
  5
43A
  8
0
  6
CONTINUOUS
 62
    30
 10
1.096110220151843
 20
88.59884031539406
 30
0.0
 42
-0.0118140893427515
  0
VERTEX
  5
43B
  8
0
  6
CONTINUOUS
 62
    30
 10
1.261205013402091
 20
88.58018992899346
 30
0.0
  0
VERTEX
  5
43C
  8
0
  6
CONTINUOUS
 62
    30
 10
1.261694079295296
 20
88.58012294415087
 30
0.0
 42
-0.0108933268381948
  0
VERTEX
  5
43D
  8
0
  6
CONTINUOUS
 62
    30
 10
1.426753596586742
 20
88.55384063293759
 30
0.0
  0
VERTEX
  5
43E
  8
0
  6
CONTINUOUS
 62
    30
 10
1.427191054330876
 20
88.55376116927823
 30
0.0
 42
-0.0100031086281319
  0
VERTEX
  5
43F
  8
0
  6
CONTINUOUS
 62
    30
 10
1.591885881366363
 20
88.52042815920677
 30
0.0
  0
VERTEX
  5
440
  8
0
  6
CONTINUOUS
 62
    30
 10
1.608633791654967
 20
88.5166882659075
 30
0.0
 42
-0.0129863001035411
  0
VERTEX
  5
441
  8
0
  6
CONTINUOUS
 62
    30
 10
1.804879284038378
 20
88.46748235357643
 30
0.0
  0
VERTEX
  5
442
  8
0
  6
CONTINUOUS
 62
    30
 10
1.821301225372627
 20
88.46290838869142
 30
0.0
 42
-0.0104802744469776
  0
VERTEX
  5
443
  8
0
  6
CONTINUOUS
 62
    30
 10
1.98830056036914
 20
88.41259993485392
 30
0.0
  0
VERTEX
  5
444
  8
0
  6
CONTINUOUS
 62
    30
 10
2.009191599187949
 20
88.4058258067188
 30
0.0
 42
-0.0115989711844232
  0
VERTEX
  5
445
  8
0
  6
CONTINUOUS
 62
    30
 10
2.13235385341622
 20
88.36270733160066
 30
0.0
  0
VERTEX
  5
446
  8
0
  6
CONTINUOUS
 62
    30
 10
2.132665284967598
 20
88.36259012343251
 30
0.0
 42
-0.0061648570285329
  0
VERTEX
  5
447
  8
0
  6
CONTINUOUS
 62
    30
 10
2.253621890440883
 20
88.31535715229791
 30
0.0
  0
VERTEX
  5
448
  8
0
  6
CONTINUOUS
 62
    30
 10
2.253821686462826
 20
88.31527628000325
 30
0.0
 42
-0.0134069186537396
  0
VERTEX
  5
449
  8
0
  6
CONTINUOUS
 62
    30
 10
2.372408631285282
 20
88.26353329371972
 30
0.0
  0
VERTEX
  5
44A
  8
0
  6
CONTINUOUS
 62
    30
 10
2.372824730091562
 20
88.26333829649715
 30
0.0
 42
-0.0071394363035536
  0
VERTEX
  5
44B
  8
0
  6
CONTINUOUS
 62
    30
 10
2.488389521159149
 20
88.20715474291757
 30
0.0
  0
VERTEX
  5
44C
  8
0
  6
CONTINUOUS
 62
    30
 10
2.488614093981885
 20
88.20704157100019
 30
0.0
 42
-0.0154854042940692
  0
VERTEX
  5
44D
  8
0
  6
CONTINUOUS
 62
    30
 10
2.601034999265011
 20
88.1459515407528
 30
0.0
  0
VERTEX
  5
44E
  8
0
  6
CONTINUOUS
 62
    30
 10
2.619667570437451
 20
88.13506606987998
 30
0.0
 42
-0.0083262599511867
  0
VERTEX
  5
44F
  8
0
  6
CONTINUOUS
 62
    30
 10
2.692197950594931
 20
88.09105648258091
 30
0.0
 42
-0.0087119547570646
  0
VERTEX
  5
450
  8
0
  6
CONTINUOUS
 62
    30
 10
2.763185929551706
 20
88.04460201593673
 30
0.0
  0
VERTEX
  5
451
  8
0
  6
CONTINUOUS
 62
    30
 10
2.782962053765266
 20
88.03116268587696
 30
0.0
 42
-0.0179703650201703
  0
VERTEX
  5
452
  8
0
  6
CONTINUOUS
 62
    30
 10
2.879552267498269
 20
87.96031902079164
 30
0.0
  0
VERTEX
  5
453
  8
0
  6
CONTINUOUS
 62
    30
 10
2.898364426402194
 20
87.94545298103802
 30
0.0
 42
-0.0053851710784514
  0
VERTEX
  5
454
  8
0
  6
CONTINUOUS
 62
    30
 10
2.954296636910357
 20
87.9002663247135
 30
0.0
  0
VERTEX
  5
455
  8
0
  6
CONTINUOUS
 62
    30
 10
2.955171963994189
 20
87.89954344531968
 30
0.0
 42
-0.0032063390330093
  0
VERTEX
  5
456
  8
0
  6
CONTINUOUS
 62
    30
 10
3.008580271761076
 20
87.85485762746282
 30
0.0
  0
VERTEX
  5
457
  8
0
  6
CONTINUOUS
 62
    30
 10
3.009439346388624
 20
87.85412943833583
 30
0.0
 42
-0.0009818043587179
  0
VERTEX
  5
458
  8
0
  6
CONTINUOUS
 62
    30
 10
3.060757190010008
 20
87.81045673666591
 30
0.0
  0
VERTEX
  5
459
  8
0
  6
CONTINUOUS
 62
    30
 10
3.062465334000081
 20
87.80899800808248
 30
0.0
  0
SEQEND
  5
3B4
  8
0
  6
CONTINUOUS
 62
    30
  0
ARC
  5
13D
  8
0
  6
CONTINUOUS
 62
    30
 10
-3.481185315200037
 20
86.30019318849998
 30
0.0
 40
8.747389489349946
 50
2.30190167049996
 51
57.69271975880007
  0
POLYLINE
  5
13E
  8
0
  6
CONTINUOUS
 62
    30
 66
     1
 10
0.0
 20
0.0
 30
0.0
  0
VERTEX
  5
45B
  8
0
  6
CONTINUOUS
 62
    30
 10
-16.66116502120002
 20
73.58900172220001
 30
0.0
  0
VERTEX
  5
45C
  8
0
  6
CONTINUOUS
 62
    30
 10
-16.7155753678
 20
74.41875217360001
 30
0.0
  0
VERTEX
  5
45D
  8
0
  6
CONTINUOUS
 62
    30
 10
-16.87746668130001
 20
75.29089970529998
 30
0.0
  0
VERTEX
  5
45E
  8
0
  6
CONTINUOUS
 62
    30
 10
-17.14285270940002
 20
76.18395510329998
 30
0.0
  0
VERTEX
  5
45F
  8
0
  6
CONTINUOUS
 62
    30
 10
-17.50519855030001
 20
77.07594340930001
 30
0.0
  0
VERTEX
  5
460
  8
0
  6
CONTINUOUS
 62
    30
 10
-17.95558240770004
 20
77.9448866569
 30
0.0
  0
VERTEX
  5
461
  8
0
  6
CONTINUOUS
 62
    30
 10
-18.48291389810004
 20
78.76939225960001
 30
0.0
  0
VERTEX
  5
462
  8
0
  6
CONTINUOUS
 62
    30
 10
-19.07420882870002
 20
79.52916449119999
 30
0.0
  0
VERTEX
  5
463
  8
0
  6
CONTINUOUS
 62
    30
 10
-19.71490743909999
 20
80.20549238749999
 30
0.0
  0
VERTEX
  5
464
  8
0
  6
CONTINUOUS
 62
    30
 10
-20.38923330770001
 20
80.78171245520002
 30
0.0
  0
VERTEX
  5
465
  8
0
  6
CONTINUOUS
 62
    30
 10
-21.08058222250003
 20
81.24365217439998
 30
0.0
  0
VERTEX
  5
466
  8
0
  6
CONTINUOUS
 62
    30
 10
-21.7719314666
 20
81.57992711190002
 30
0.0
  0
VERTEX
  5
467
  8
0
  6
CONTINUOUS
 62
    30
 10
-22.44625733520002
 20
81.78226711999997
 30
0.0
  0
VERTEX
  5
468
  8
0
  6
CONTINUOUS
 62
    30
 10
-23.08695594549999
 20
81.84567409340002
 30
0.0
  0
VERTEX
  5
469
  8
0
  6
CONTINUOUS
 62
    30
 10
-23.67825054690002
 20
81.7685962672
 30
0.0
  0
VERTEX
  5
46A
  8
0
  6
CONTINUOUS
 62
    30
 10
-24.20558269579999
 20
81.55293502379999
 30
0.0
  0
VERTEX
  5
46B
  8
0
  6
CONTINUOUS
 62
    30
 10
-24.65596589469999
 20
81.20399352909999
 30
0.0
  0
VERTEX
  5
46C
  8
0
  6
CONTINUOUS
 62
    30
 10
-25.0183122295
 20
80.7303611113
 30
0.0
  0
VERTEX
  5
46D
  8
0
  6
CONTINUOUS
 62
    30
 10
-25.28369776369999
 20
80.14371361410002
 30
0.0
  0
VERTEX
  5
46E
  8
0
  6
CONTINUOUS
 62
    30
 10
-25.44558907710001
 20
79.4584818143
 30
0.0
  0
VERTEX
  5
46F
  8
0
  6
CONTINUOUS
 62
    30
 10
-25.5
 20
78.69155254459997
 30
0.0
  0
VERTEX
  5
470
  8
0
  6
CONTINUOUS
 62
    30
 10
-25.44558907710001
 20
77.86178959310001
 30
0.0
  0
VERTEX
  5
471
  8
0
  6
CONTINUOUS
 62
    30
 10
-25.28369776369999
 20
76.98965422880002
 30
0.0
  0
VERTEX
  5
472
  8
0
  6
CONTINUOUS
 62
    30
 10
-25.0183122295
 20
76.09658694849998
 30
0.0
  0
VERTEX
  5
473
  8
0
  6
CONTINUOUS
 62
    30
 10
-24.65596589469999
 20
75.20461052489998
 30
0.0
  0
VERTEX
  5
474
  8
0
  6
CONTINUOUS
 62
    30
 10
-24.20558269579999
 20
74.3356676574
 30
0.0
  0
VERTEX
  5
475
  8
0
  6
CONTINUOUS
 62
    30
 10
-23.67825054690002
 20
73.51114950710002
 30
0.0
  0
VERTEX
  5
476
  8
0
  6
CONTINUOUS
 62
    30
 10
-23.08695594549999
 20
72.7513774656
 30
0.0
  0
VERTEX
  5
477
  8
0
  6
CONTINUOUS
 62
    30
 10
-22.44625733520002
 20
72.07506173669998
 30
0.0
  0
VERTEX
  5
478
  8
0
  6
CONTINUOUS
 62
    30
 10
-21.7719314666
 20
71.49882950159997
 30
0.0
  0
VERTEX
  5
479
  8
0
  6
CONTINUOUS
 62
    30
 10
-21.08058222250003
 20
71.03688959229999
 30
0.0
  0
VERTEX
  5
47A
  8
0
  6
CONTINUOUS
 62
    30
 10
-20.38923330770001
 20
70.70061484500002
 30
0.0
  0
VERTEX
  5
47B
  8
0
  6
CONTINUOUS
 62
    30
 10
-19.71490743909999
 20
70.49828700429998
 30
0.0
  0
VERTEX
  5
47C
  8
0
  6
CONTINUOUS
 62
    30
 10
-19.07420882870002
 20
70.43486786339997
 30
0.0
  0
VERTEX
  5
47D
  8
0
  6
CONTINUOUS
 62
    30
 10
-18.48291389810004
 20
70.51194549960002
 30
0.0
  0
VERTEX
  5
47E
  8
0
  6
CONTINUOUS
 62
    30
 10
-17.95558240770004
 20
70.7276192905
 30
0.0
  0
VERTEX
  5
47F
  8
0
  6
CONTINUOUS
 62
    30
 10
-17.50519855030001
 20
71.07656040500001
 30
0.0
  0
VERTEX
  5
480
  8
0
  6
CONTINUOUS
 62
    30
 10
-17.14285270940002
 20
71.5501809406
 30
0.0
  0
VERTEX
  5
481
  8
0
  6
CONTINUOUS
 62
    30
 10
-16.87746668130001
 20
72.13684031999998
 30
0.0
  0
VERTEX
  5
482
  8
0
  6
CONTINUOUS
 62
    30
 10
-16.7155753678
 20
72.82205995240003
 30
0.0
  0
VERTEX
  5
483
  8
0
  6
CONTINUOUS
 62
    30
 10
-16.66116502120002
 20
73.58900172220001
 30
0.0
  0
SEQEND
  5
45A
  8
0
  6
CONTINUOUS
 62
    30
  0
POLYLINE
  5
169
  8
0
  6
CONTINUOUS
 62
    30
 66
     1
 10
0.0
 20
0.0
 30
0.0
  0
VERTEX
  5
485
  8
0
  6
CONTINUOUS
 62
    30
 10
-4.640349746299989
 20
80.52847066959998
 30
0.0
  0
VERTEX
  5
486
  8
0
  6
CONTINUOUS
 62
    30
 10
-4.694760092900026
 20
81.35822112099999
 30
0.0
  0
VERTEX
  5
487
  8
0
  6
CONTINUOUS
 62
    30
 10
-4.856651406400033
 20
82.2303686528
 30
0.0
  0
VERTEX
  5
488
  8
0
  6
CONTINUOUS
 62
    30
 10
-5.122037434499987
 20
83.1234240508
 30
0.0
  0
VERTEX
  5
489
  8
0
  6
CONTINUOUS
 62
    30
 10
-5.484383275400035
 20
84.01541235669998
 30
0.0
  0
VERTEX
  5
48A
  8
0
  6
CONTINUOUS
 62
    30
 10
-5.934767132800005
 20
84.88435560430003
 30
0.0
  0
VERTEX
  5
48B
  8
0
  6
CONTINUOUS
 62
    30
 10
-6.462098623200006
 20
85.70886120709997
 30
0.0
  0
VERTEX
  5
48C
  8
0
  6
CONTINUOUS
 62
    30
 10
-7.053393553799992
 20
86.46863343860002
 30
0.0
  0
VERTEX
  5
48D
  8
0
  6
CONTINUOUS
 62
    30
 10
-7.694092164200015
 20
87.14496133500001
 30
0.0
  0
VERTEX
  5
48E
  8
0
  6
CONTINUOUS
 62
    30
 10
-8.368418032800037
 20
87.7211814026
 30
0.0
  0
VERTEX
  5
48F
  8
0
  6
CONTINUOUS
 62
    30
 10
-9.059766947599997
 20
88.18312112180001
 30
0.0
  0
VERTEX
  5
490
  8
0
  6
CONTINUOUS
 62
    30
 10
-9.751116191700021
 20
88.51939605929999
 30
0.0
  0
VERTEX
  5
491
  8
0
  6
CONTINUOUS
 62
    30
 10
-10.42544206029999
 20
88.7217360674
 30
0.0
  0
VERTEX
  5
492
  8
0
  6
CONTINUOUS
 62
    30
 10
-11.06614067060002
 20
88.78514304089998
 30
0.0
  0
VERTEX
  5
493
  8
0
  6
CONTINUOUS
 62
    30
 10
-11.65743527199999
 20
88.70806521460003
 30
0.0
  0
VERTEX
  5
494
  8
0
  6
CONTINUOUS
 62
    30
 10
-12.18451322280004
 20
88.49254924349998
 30
0.0
  0
SEQEND
  5
484
  8
0
  6
CONTINUOUS
 62
    30
  0
ARC
  5
17B
  8
0
  6
CONTINUOUS
 62
    30
 10
-7.735387887400009
 20
80.20513580250002
 30
0.0
 40
3.111881509893542
 50
305.3483473264004
 51
5.963986686700424
  0
POLYLINE
  5
17C
  8
0
  6
CONTINUOUS
 62
    30
 66
     1
 10
0.0
 20
0.0
 30
0.0
  0
VERTEX
  5
496
  8
0
  6
CONTINUOUS
 62
    30
 10
-16.94400766479998
 20
73.75228330480002
 30
0.0
  0
VERTEX
  5
497
  8
0
  6
CONTINUOUS
 62
    30
 10
-16.99757532140001
 20
74.54944966390002
 30
0.0
  0
VERTEX
  5
498
  8
0
  6
CONTINUOUS
 62
    30
 10
-17.15689057340001
 20
75.38781777079998
 30
0.0
  0
VERTEX
  5
499
  8
0
  6
CONTINUOUS
 62
    30
 10
-17.41782747479999
 20
76.24568392639998
 30
0.0
  0
VERTEX
  5
49A
  8
0
  6
CONTINUOUS
 62
    30
 10
-17.77362771259999
 20
77.10081035849998
 30
0.0
  0
VERTEX
  5
49B
  8
0
  6
CONTINUOUS
 62
    30
 10
-18.21507643810003
 20
77.93106209259997
 30
0.0
  0
VERTEX
  5
49C
  8
0
  6
CONTINUOUS
 62
    30
 10
-18.73074000150001
 20
78.71493355069998
 30
0.0
  0
VERTEX
  5
49D
  8
0
  6
CONTINUOUS
 62
    30
 10
-19.30726344959999
 20
79.43212181669998
 30
0.0
  0
VERTEX
  5
49E
  8
0
  6
CONTINUOUS
 62
    30
 10
-19.92971510870001
 20
80.06405408069998
 30
0.0
  0
VERTEX
  5
49F
  8
0
  6
CONTINUOUS
 62
    30
 10
-20.58197348010003
 20
80.59436650390001
 30
0.0
  0
VERTEX
  5
4A0
  8
0
  6
CONTINUOUS
 62
    30
 10
-21.24714525069999
 20
81.00931587510002
 30
0.0
  0
VERTEX
  5
4A1
  8
0
  6
CONTINUOUS
 62
    30
 10
-21.90800388410003
 20
81.29816664489999
 30
0.0
  0
VERTEX
  5
4A2
  8
0
  6
CONTINUOUS
 62
    30
 10
-22.54743216209999
 20
81.4534220653
 30
0.0
  0
VERTEX
  5
4A3
  8
0
  6
CONTINUOUS
 62
    30
 10
-23.148869666
 20
81.47107034739997
 30
0.0
  0
VERTEX
  5
4A4
  8
0
  6
CONTINUOUS
 62
    30
 10
-23.69673984249999
 20
81.35064869000001
 30
0.0
  0
VERTEX
  5
4A5
  8
0
  6
CONTINUOUS
 62
    30
 10
-24.17685303310003
 20
81.095293433
 30
0.0
  0
VERTEX
  5
4A6
  8
0
  6
CONTINUOUS
 62
    30
 10
-24.57677460050002
 20
80.71159971690003
 30
0.0
  0
VERTEX
  5
4A7
  8
0
  6
CONTINUOUS
 62
    30
 10
-24.88614629800003
 20
80.20951498800002
 30
0.0
  0
VERTEX
  5
4A8
  8
0
  6
CONTINUOUS
 62
    30
 10
-25.09695561460001
 20
79.60203212639999
 30
0.0
  0
VERTEX
  5
4A9
  8
0
  6
CONTINUOUS
 62
    30
 10
-25.20374321640003
 20
78.90489550749999
 30
0.0
  0
VERTEX
  5
4AA
  8
0
  6
CONTINUOUS
 62
    30
 10
-25.20374321640003
 20
78.1361587801
 30
0.0
  0
VERTEX
  5
4AB
  8
0
  6
CONTINUOUS
 62
    30
 10
-25.09695561460001
 20
77.31571565320002
 30
0.0
  0
VERTEX
  5
4AC
  8
0
  6
CONTINUOUS
 62
    30
 10
-24.88614629800003
 20
76.4648497028
 30
0.0
  0
VERTEX
  5
4AD
  8
0
  6
CONTINUOUS
 62
    30
 10
-24.57677460050002
 20
75.60555984759998
 30
0.0
  0
VERTEX
  5
4AE
  8
0
  6
CONTINUOUS
 62
    30
 10
-24.17685303310003
 20
74.76012651820003
 30
0.0
  0
VERTEX
  5
4AF
  8
0
  6
CONTINUOUS
 62
    30
 10
-23.69673984249999
 20
73.95044437050001
 30
0.0
  0
VERTEX
  5
4B0
  8
0
  6
CONTINUOUS
 62
    30
 10
-23.148869666
 20
73.19746527180001
 30
0.0
  0
VERTEX
  5
4B1
  8
0
  6
CONTINUOUS
 62
    30
 10
-22.54743216209999
 20
72.52072076010001
 30
0.0
  0
VERTEX
  5
4B2
  8
0
  6
CONTINUOUS
 62
    30
 10
-21.90800388410003
 20
71.93770800520002
 30
0.0
  0
VERTEX
  5
4B3
  8
0
  6
CONTINUOUS
 62
    30
 10
-21.24714525069999
 20
71.46353547059999
 30
0.0
  0
VERTEX
  5
4B4
  8
0
  6
CONTINUOUS
 62
    30
 10
-20.58197348010003
 20
71.11049386249999
 30
0.0
  0
VERTEX
  5
4B5
  8
0
  6
CONTINUOUS
 62
    30
 10
-19.92971510870001
 20
70.88772479990001
 30
0.0
  0
VERTEX
  5
4B6
  8
0
  6
CONTINUOUS
 62
    30
 10
-19.30726344959999
 20
70.80098967560002
 30
0.0
  0
VERTEX
  5
4B7
  8
0
  6
CONTINUOUS
 62
    30
 10
-18.73074000150001
 20
70.85253813700001
 30
0.0
  0
VERTEX
  5
4B8
  8
0
  6
CONTINUOUS
 62
    30
 10
-18.21507643810003
 20
71.04103711760001
 30
0.0
  0
VERTEX
  5
4B9
  8
0
  6
CONTINUOUS
 62
    30
 10
-17.77362771259999
 20
71.3616030023
 30
0.0
  0
VERTEX
  5
4BA
  8
0
  6
CONTINUOUS
 62
    30
 10
-17.41782747479999
 20
71.80593122390002
 30
0.0
  0
VERTEX
  5
4BB
  8
0
  6
CONTINUOUS
 62
    30
 10
-17.15689057340001
 20
72.36252604589998
 30
0.0
  0
VERTEX
  5
4BC
  8
0
  6
CONTINUOUS
 62
    30
 10
-16.99757532140001
 20
73.01695267809998
 30
0.0
  0
VERTEX
  5
4BD
  8
0
  6
CONTINUOUS
 62
    30
 10
-16.94400766479998
 20
73.75228330480002
 30
0.0
  0
SEQEND
  5
495
  8
0
  6
CONTINUOUS
 62
    30
  0
POLYLINE
  5
1A6
  8
0
  6
CONTINUOUS
 62
    30
 66
     1
 10
0.0
 20
0.0
 30
0.0
  0
VERTEX
  5
4BF
  8
0
  6
CONTINUOUS
 62
    30
 10
-20.63131920789999
 20
80.62943012649998
 30
0.0
  0
VERTEX
  5
4C0
  8
0
  6
CONTINUOUS
 62
    30
 10
-21.13187098590004
 20
80.80153674740001
 30
0.0
  0
VERTEX
  5
4C1
  8
0
  6
CONTINUOUS
 62
    30
 10
-21.6976627926
 20
80.87505502009998
 30
0.0
  0
VERTEX
  5
4C2
  8
0
  6
CONTINUOUS
 62
    30
 10
-22.21354482819999
 20
80.80401245939999
 30
0.0
  0
VERTEX
  5
4C3
  8
0
  6
CONTINUOUS
 62
    30
 10
-22.6619497593
 20
80.5908365903
 30
0.0
  0
VERTEX
  5
4C4
  8
0
  6
CONTINUOUS
 62
    30
 10
-23.02760791450004
 20
80.24277339539998
 30
0.0
  0
VERTEX
  5
4C5
  8
0
  6
CONTINUOUS
 62
    30
 10
-23.29806621699999
 20
79.77168802490002
 30
0.0
  0
VERTEX
  5
4C6
  8
0
  6
CONTINUOUS
 62
    30
 10
-23.46411558049999
 20
79.19363015149997
 30
0.0
  0
VERTEX
  5
4C7
  8
0
  6
CONTINUOUS
 62
    30
 10
-23.52010108330001
 20
78.52827081949999
 30
0.0
  0
VERTEX
  5
4C8
  8
0
  6
CONTINUOUS
 62
    30
 10
-23.46411558049999
 20
77.79825983429998
 30
0.0
  0
VERTEX
  5
4C9
  8
0
  6
CONTINUOUS
 62
    30
 10
-23.29806621699999
 20
77.02848544670002
 30
0.0
  0
VERTEX
  5
4CA
  8
0
  6
CONTINUOUS
 62
    30
 10
-23.02760791450004
 20
76.24513556670001
 30
0.0
  0
VERTEX
  5
4CB
  8
0
  6
CONTINUOUS
 62
    30
 10
-22.6619497593
 20
75.4749046197
 30
0.0
  0
VERTEX
  5
4CC
  8
0
  6
CONTINUOUS
 62
    30
 10
-22.21354482819999
 20
74.7439992697
 30
0.0
  0
VERTEX
  5
4CD
  8
0
  6
CONTINUOUS
 62
    30
 10
-21.6976627926
 20
74.07733198889997
 30
0.0
  0
VERTEX
  5
4CE
  8
0
  6
CONTINUOUS
 62
    30
 10
-21.13187098590004
 20
73.4976009463
 30
0.0
  0
VERTEX
  5
4CF
  8
0
  6
CONTINUOUS
 62
    30
 10
-20.53543710310004
 20
73.02454366910001
 30
0.0
  0
VERTEX
  5
4D0
  8
0
  6
CONTINUOUS
 62
    30
 10
-19.92867164490002
 20
72.67426542589999
 30
0.0
  0
VERTEX
  5
4D1
  8
0
  6
CONTINUOUS
 62
    30
 10
-19.33223776220001
 20
72.45869479999999
 30
0.0
  0
VERTEX
  5
4D2
  8
0
  6
CONTINUOUS
 62
    30
 10
-18.76644595549999
 20
72.38517652740001
 30
0.0
  0
VERTEX
  5
4D3
  8
0
  6
CONTINUOUS
 62
    30
 10
-18.2505635906
 20
72.45621889799998
 30
0.0
  0
VERTEX
  5
4D4
  8
0
  6
CONTINUOUS
 62
    30
 10
-17.80215865950004
 20
72.66940693449999
 30
0.0
  0
VERTEX
  5
4D5
  8
0
  6
CONTINUOUS
 62
    30
 10
-17.43650083360001
 20
73.01745815200002
 30
0.0
  0
VERTEX
  5
4D6
  8
0
  6
CONTINUOUS
 62
    30
 10
-17.1660422018
 20
73.4885433325
 30
0.0
  0
VERTEX
  5
4D7
  8
0
  6
CONTINUOUS
 62
    30
 10
-16.9999930029
 20
74.0666013009
 30
0.0
  0
VERTEX
  5
4D8
  8
0
  6
CONTINUOUS
 62
    30
 10
-16.96840394000003
 20
74.28438866959999
 30
0.0
  0
SEQEND
  5
4BE
  8
0
  6
CONTINUOUS
 62
    30
  0
POLYLINE
  5
1C2
  8
0
  6
CONTINUOUS
 62
    30
 66
     1
 10
0.0
 20
0.0
 30
0.0
  0
VERTEX
  5
4DA
  8
0
  6
CONTINUOUS
 62
    30
 10
-11.12385287710004
 20
89.10485542769999
 30
0.0
  0
VERTEX
  5
4DB
  8
0
  6
CONTINUOUS
 62
    30
 10
-10.59677492640003
 20
89.32037139879998
 30
0.0
  0
VERTEX
  5
4DC
  8
0
  6
CONTINUOUS
 62
    30
 10
-10.00548032500001
 20
89.39744922509999
 30
0.0
  0
VERTEX
  5
4DD
  8
0
  6
CONTINUOUS
 62
    30
 10
-9.364781714599985
 20
89.33404225160001
 30
0.0
  0
VERTEX
  5
4DE
  8
0
  6
CONTINUOUS
 62
    30
 10
-8.690455846100008
 20
89.1317022435
 30
0.0
  0
VERTEX
  5
4DF
  8
0
  6
CONTINUOUS
 62
    30
 10
-7.999106601899996
 20
88.79542730610001
 30
0.0
  0
VERTEX
  5
4E0
  8
0
  6
CONTINUOUS
 62
    30
 10
-7.307757687100036
 20
88.33348758689999
 30
0.0
  0
VERTEX
  5
4E1
  8
0
  6
CONTINUOUS
 62
    30
 10
-6.633431818500014
 20
87.75726751920001
 30
0.0
  0
VERTEX
  5
4E2
  8
0
  6
CONTINUOUS
 62
    30
 10
-5.992733208200036
 20
87.08093962290002
 30
0.0
  0
VERTEX
  5
4E3
  8
0
  6
CONTINUOUS
 62
    30
 10
-5.401438277500006
 20
86.32116739129998
 30
0.0
  0
VERTEX
  5
4E4
  8
0
  6
CONTINUOUS
 62
    30
 10
-4.874106787100004
 20
85.49666178860002
 30
0.0
  0
VERTEX
  5
4E5
  8
0
  6
CONTINUOUS
 62
    30
 10
-4.423722929800022
 20
84.62771854089999
 30
0.0
  0
VERTEX
  5
4E6
  8
0
  6
CONTINUOUS
 62
    30
 10
-4.061377088900031
 20
83.73573023500001
 30
0.0
  0
VERTEX
  5
4E7
  8
0
  6
CONTINUOUS
 62
    30
 10
-3.79599106080002
 20
82.842674837
 30
0.0
  0
VERTEX
  5
4E8
  8
0
  6
CONTINUOUS
 62
    30
 10
-3.634099747300013
 20
81.97052730529998
 30
0.0
  0
VERTEX
  5
4E9
  8
0
  6
CONTINUOUS
 62
    30
 10
-3.579689400599989
 20
81.14077685389998
 30
0.0
  0
VERTEX
  5
4EA
  8
0
  6
CONTINUOUS
 62
    30
 10
-3.634099747300013
 20
80.37383508409999
 30
0.0
  0
VERTEX
  5
4EB
  8
0
  6
CONTINUOUS
 62
    30
 10
-3.79599106080002
 20
79.6886154517
 30
0.0
  0
VERTEX
  5
4EC
  8
0
  6
CONTINUOUS
 62
    30
 10
-4.061377088900031
 20
79.10195607230003
 30
0.0
  0
VERTEX
  5
4ED
  8
0
  6
CONTINUOUS
 62
    30
 10
-4.423722929800022
 20
78.62833553669998
 30
0.0
  0
VERTEX
  5
4EE
  8
0
  6
CONTINUOUS
 62
    30
 10
-4.874106787100004
 20
78.27939442219997
 30
0.0
  0
VERTEX
  5
4EF
  8
0
  6
CONTINUOUS
 62
    30
 10
-4.874360656000022
 20
78.2792367925
 30
0.0
  0
SEQEND
  5
4D9
  8
0
  6
CONTINUOUS
 62
    30
  0
POLYLINE
  5
1DA
  8
0
  6
CONTINUOUS
 62
    30
 66
     1
 10
0.0
 20
0.0
 30
0.0
  0
VERTEX
  5
4F1
  8
0
  6
CONTINUOUS
 62
    30
 10
-12.18451322280004
 20
88.49254924349998
 30
0.0
  0
VERTEX
  5
4F2
  8
0
  6
CONTINUOUS
 62
    30
 10
-11.65743527199999
 20
88.70806521460003
 30
0.0
  0
VERTEX
  5
4F3
  8
0
  6
CONTINUOUS
 62
    30
 10
-11.06614067060002
 20
88.78514304089998
 30
0.0
  0
VERTEX
  5
4F4
  8
0
  6
CONTINUOUS
 62
    30
 10
-10.42544206029999
 20
88.7217360674
 30
0.0
  0
VERTEX
  5
4F5
  8
0
  6
CONTINUOUS
 62
    30
 10
-9.751116191700021
 20
88.51939605929999
 30
0.0
  0
VERTEX
  5
4F6
  8
0
  6
CONTINUOUS
 62
    30
 10
-9.059766947599997
 20
88.18312112180001
 30
0.0
  0
VERTEX
  5
4F7
  8
0
  6
CONTINUOUS
 62
    30
 10
-8.368418032800037
 20
87.7211814026
 30
0.0
  0
VERTEX
  5
4F8
  8
0
  6
CONTINUOUS
 62
    30
 10
-7.694092164200015
 20
87.14496133500001
 30
0.0
  0
VERTEX
  5
4F9
  8
0
  6
CONTINUOUS
 62
    30
 10
-7.053393553799992
 20
86.46863343860002
 30
0.0
  0
VERTEX
  5
4FA
  8
0
  6
CONTINUOUS
 62
    30
 10
-6.462098623200006
 20
85.70886120709997
 30
0.0
  0
VERTEX
  5
4FB
  8
0
  6
CONTINUOUS
 62
    30
 10
-5.934767132800005
 20
84.88435560430003
 30
0.0
  0
VERTEX
  5
4FC
  8
0
  6
CONTINUOUS
 62
    30
 10
-5.484383275400035
 20
84.01541235669998
 30
0.0
  0
VERTEX
  5
4FD
  8
0
  6
CONTINUOUS
 62
    30
 10
-5.122037434499987
 20
83.1234240508
 30
0.0
  0
VERTEX
  5
4FE
  8
0
  6
CONTINUOUS
 62
    30
 10
-4.856651406400033
 20
82.2303686528
 30
0.0
  0
VERTEX
  5
4FF
  8
0
  6
CONTINUOUS
 62
    30
 10
-4.694760092900026
 20
81.35822112099999
 30
0.0
  0
VERTEX
  5
500
  8
0
  6
CONTINUOUS
 62
    30
 10
-4.640349746299989
 20
80.52847066959998
 30
0.0
  0
VERTEX
  5
501
  8
0
  6
CONTINUOUS
 62
    30
 10
-4.694760092900026
 20
79.76152889989999
 30
0.0
  0
VERTEX
  5
502
  8
0
  6
CONTINUOUS
 62
    30
 10
-4.856651406400033
 20
79.07630926749999
 30
0.0
  0
VERTEX
  5
503
  8
0
  6
CONTINUOUS
 62
    30
 10
-5.122037434499987
 20
78.48964988799997
 30
0.0
  0
VERTEX
  5
504
  8
0
  6
CONTINUOUS
 62
    30
 10
-5.484383275400035
 20
78.01602935249997
 30
0.0
  0
VERTEX
  5
505
  8
0
  6
CONTINUOUS
 62
    30
 10
-5.934767132800005
 20
77.66708823800002
 30
0.0
  0
VERTEX
  5
506
  8
0
  6
CONTINUOUS
 62
    30
 10
-5.935021001700022
 20
77.66693060820001
 30
0.0
  0
SEQEND
  5
4F0
  8
0
  6
CONTINUOUS
 62
    30
  0
POLYLINE
  5
1F2
  8
0
  6
CONTINUOUS
 62
    30
 66
     1
 10
0.0
 20
0.0
 30
0.0
  0
VERTEX
  5
508
  8
0
  6
CONTINUOUS
 62
    30
 10
5.572327614299979
 20
86.08555463229999
 30
0.0
  0
VERTEX
  5
509
  8
0
  6
CONTINUOUS
 62
    30
 10
6.0725562115
 20
86.01922470300002
 30
0.0
  0
VERTEX
  5
50A
  8
0
  6
CONTINUOUS
 62
    30
 10
6.507761770400009
 20
85.81525652139999
 30
0.0
  0
VERTEX
  5
50B
  8
0
  6
CONTINUOUS
 62
    30
 10
6.863123582199989
 20
85.48060771740001
 30
0.0
  0
VERTEX
  5
50C
  8
0
  6
CONTINUOUS
 62
    30
 10
7.126540397599968
 20
85.02666517199998
 30
0.0
  0
VERTEX
  5
50D
  8
0
  6
CONTINUOUS
 62
    30
 10
7.289041852499963
 20
84.46888632510002
 30
0.0
  0
VERTEX
  5
50E
  8
0
  6
CONTINUOUS
 62
    30
 10
7.345094197599963
 20
83.82626996030001
 30
0.0
  0
VERTEX
  5
50F
  8
0
  6
CONTINUOUS
 62
    30
 10
7.34511033199999
 20
83.81451339260002
 30
0.0
  0
SEQEND
  5
507
  8
0
  6
CONTINUOUS
 62
    30
  0
POLYLINE
  5
1FC
  8
0
  6
CONTINUOUS
 62
    30
 66
     1
 10
0.0
 20
0.0
 30
0.0
  0
VERTEX
  5
511
  8
0
  6
CONTINUOUS
 62
    30
 10
4.163647114900016
 20
78.30345875469999
 30
0.0
  0
VERTEX
  5
512
  8
0
  6
CONTINUOUS
 62
    30
 10
3.879686532199969
 20
78.1541326871
 30
0.0
  0
VERTEX
  5
513
  8
0
  6
CONTINUOUS
 62
    30
 10
3.302149604699991
 20
77.94319265960002
 30
0.0
  0
VERTEX
  5
514
  8
0
  6
CONTINUOUS
 62
    30
 10
2.753932292900004
 20
77.86963580790001
 30
0.0
  0
VERTEX
  5
515
  8
0
  6
CONTINUOUS
 62
    30
 10
2.253703695699983
 20
77.93596573719998
 30
0.0
  0
VERTEX
  5
516
  8
0
  6
CONTINUOUS
 62
    30
 10
1.818498136799974
 20
78.13992175139998
 30
0.0
  0
VERTEX
  5
517
  8
0
  6
CONTINUOUS
 62
    30
 10
1.463136324999994
 20
78.47458272279999
 30
0.0
  0
VERTEX
  5
518
  8
0
  6
CONTINUOUS
 62
    30
 10
1.199719509600016
 20
78.92852526820002
 30
0.0
  0
VERTEX
  5
519
  8
0
  6
CONTINUOUS
 62
    30
 10
1.037218054599975
 20
79.48629194770001
 30
0.0
  0
VERTEX
  5
51A
  8
0
  6
CONTINUOUS
 62
    30
 10
0.9811657095999635
 20
80.12890831250002
 30
0.0
  0
VERTEX
  5
51B
  8
0
  6
CONTINUOUS
 62
    30
 10
1.033471594899993
 20
80.83448007660002
 30
0.0
  0
VERTEX
  5
51C
  8
0
  6
CONTINUOUS
 62
    30
 10
1.192354018599986
 20
81.57897012580003
 30
0.0
  0
VERTEX
  5
51D
  8
0
  6
CONTINUOUS
 62
    30
 10
1.45240270810001
 20
82.33703749260002
 30
0.0
  0
VERTEX
  5
51E
  8
0
  6
CONTINUOUS
 62
    30
 10
1.804761886099982
 20
83.08287308730002
 30
0.0
  0
VERTEX
  5
51F
  8
0
  6
CONTINUOUS
 62
    30
 10
2.237432542600004
 20
83.79105557150001
 30
0.0
  0
VERTEX
  5
520
  8
0
  6
CONTINUOUS
 62
    30
 10
2.735680567299994
 20
84.43749267689998
 30
0.0
  0
VERTEX
  5
521
  8
0
  6
CONTINUOUS
 62
    30
 10
3.282538643199985
 20
85.00016113660001
 30
0.0
  0
VERTEX
  5
522
  8
0
  6
CONTINUOUS
 62
    30
 10
3.859384140099962
 20
85.45990265739999
 30
0.0
  0
VERTEX
  5
523
  8
0
  6
CONTINUOUS
 62
    30
 10
4.446573375000014
 20
85.80104558570002
 30
0.0
  0
VERTEX
  5
524
  8
0
  6
CONTINUOUS
 62
    30
 10
5.024110302499992
 20
86.01199778059998
 30
0.0
  0
VERTEX
  5
525
  8
0
  6
CONTINUOUS
 62
    30
 10
5.572327614299979
 20
86.08555463229999
 30
0.0
  0
VERTEX
  5
526
  8
0
  6
CONTINUOUS
 62
    30
 10
5.572327614299979
 20
86.08555463229999
 30
0.0
  0
SEQEND
  5
510
  8
0
  6
CONTINUOUS
 62
    30
  0
POLYLINE
  5
214
  8
0
  6
CONTINUOUS
 62
    30
 66
     1
 10
0.0
 20
0.0
 30
0.0
  0
VERTEX
  5
528
  8
0
  6
CONTINUOUS
 62
    30
 10
3.264063341599979
 20
78.121968321
 30
0.0
  0
VERTEX
  5
529
  8
0
  6
CONTINUOUS
 62
    30
 10
3.782867586199984
 20
78.19554323689999
 30
0.0
  0
VERTEX
  5
52A
  8
0
  6
CONTINUOUS
 62
    30
 10
4.329871900099988
 20
78.4066094076
 30
0.0
  0
VERTEX
  5
52B
  8
0
  6
CONTINUOUS
 62
    30
 10
4.884055337000007
 20
78.7470712777
 30
0.0
  0
VERTEX
  5
52C
  8
0
  6
CONTINUOUS
 62
    30
 10
5.424120855599995
 20
79.20383127830002
 30
0.0
  0
VERTEX
  5
52D
  8
0
  6
CONTINUOUS
 62
    30
 10
5.929314055299983
 20
79.75934764419998
 30
0.0
  0
VERTEX
  5
52E
  8
0
  6
CONTINUOUS
 62
    30
 10
6.380220632399983
 20
80.39226511980002
 30
0.0
  0
VERTEX
  5
52F
  8
0
  6
CONTINUOUS
 62
    30
 10
6.759512469799972
 20
81.0782593587
 30
0.0
  0
VERTEX
  5
530
  8
0
  6
CONTINUOUS
 62
    30
 10
7.052613837499962
 20
81.7909690468
 30
0.0
  0
VERTEX
  5
531
  8
0
  6
CONTINUOUS
 62
    30
 10
7.248260660699998
 20
82.50301230320002
 30
0.0
  0
VERTEX
  5
532
  8
0
  6
CONTINUOUS
 62
    30
 10
7.338934501599965
 20
83.18701592579998
 30
0.0
  0
VERTEX
  5
533
  8
0
  6
CONTINUOUS
 62
    30
 10
7.321150836399966
 20
83.81670653409998
 30
0.0
  0
VERTEX
  5
534
  8
0
  6
CONTINUOUS
 62
    30
 10
7.195593069799998
 20
84.36786398610002
 30
0.0
  0
VERTEX
  5
535
  8
0
  6
CONTINUOUS
 62
    30
 10
6.967086357299991
 20
84.81932832929999
 30
0.0
  0
VERTEX
  5
536
  8
0
  6
CONTINUOUS
 62
    30
 10
6.644412060700006
 20
85.15374440639999
 30
0.0
  0
VERTEX
  5
537
  8
0
  6
CONTINUOUS
 62
    30
 10
6.239970243900018
 20
85.35825523839998
 30
0.0
  0
VERTEX
  5
538
  8
0
  6
CONTINUOUS
 62
    30
 10
5.769303462599964
 20
85.42500582899999
 30
0.0
  0
VERTEX
  5
539
  8
0
  6
CONTINUOUS
 62
    30
 10
5.250499218100003
 20
85.35143091309999
 30
0.0
  0
VERTEX
  5
53A
  8
0
  6
CONTINUOUS
 62
    30
 10
4.703494904100012
 20
85.14036474239998
 30
0.0
  0
VERTEX
  5
53B
  8
0
  6
CONTINUOUS
 62
    30
 10
4.149311467199993
 20
84.79990287229998
 30
0.0
  0
VERTEX
  5
53C
  8
0
  6
CONTINUOUS
 62
    30
 10
3.609245948600005
 20
84.34314287170002
 30
0.0
  0
VERTEX
  5
53D
  8
0
  6
CONTINUOUS
 62
    30
 10
3.104052749000005
 20
83.78762650570002
 30
0.0
  0
VERTEX
  5
53E
  8
0
  6
CONTINUOUS
 62
    30
 10
2.653146171900005
 20
83.15470903020002
 30
0.0
  0
VERTEX
  5
53F
  8
0
  6
CONTINUOUS
 62
    30
 10
2.273854334399971
 20
82.46871479129999
 30
0.0
  0
VERTEX
  5
540
  8
0
  6
CONTINUOUS
 62
    30
 10
1.980752966799969
 20
81.75600510319998
 30
0.0
  0
VERTEX
  5
541
  8
0
  6
CONTINUOUS
 62
    30
 10
1.78510614359999
 20
81.04396184680002
 30
0.0
  0
VERTEX
  5
542
  8
0
  6
CONTINUOUS
 62
    30
 10
1.694432302699966
 20
80.35995822410001
 30
0.0
  0
VERTEX
  5
543
  8
0
  6
CONTINUOUS
 62
    30
 10
1.712215967899965
 20
79.73027978329998
 30
0.0
  0
VERTEX
  5
544
  8
0
  6
CONTINUOUS
 62
    30
 10
1.83777373449999
 20
79.17911016390002
 30
0.0
  0
VERTEX
  5
545
  8
0
  6
CONTINUOUS
 62
    30
 10
2.066280446999997
 20
78.7276458206
 30
0.0
  0
VERTEX
  5
546
  8
0
  6
CONTINUOUS
 62
    30
 10
2.388954743499994
 20
78.39322974359999
 30
0.0
  0
VERTEX
  5
547
  8
0
  6
CONTINUOUS
 62
    30
 10
2.79339656039997
 20
78.18871891160001
 30
0.0
  0
VERTEX
  5
548
  8
0
  6
CONTINUOUS
 62
    30
 10
3.264063341599979
 20
78.121968321
 30
0.0
  0
SEQEND
  5
527
  8
0
  6
CONTINUOUS
 62
    30
  0
POLYLINE
  5
237
  8
0
  6
CONTINUOUS
 62
    30
 66
     1
 10
0.0
 20
0.0
 30
0.0
  0
VERTEX
  5
54A
  8
0
  6
CONTINUOUS
 62
    30
 10
7.34511033199999
 20
83.81451339260002
 30
0.0
  0
VERTEX
  5
54B
  8
0
  6
CONTINUOUS
 62
    30
 10
7.31549789029998
 20
84.29754756080001
 30
0.0
  0
VERTEX
  5
54C
  8
0
  6
CONTINUOUS
 62
    30
 10
7.182240750599988
 20
84.88099365879998
 30
0.0
  0
VERTEX
  5
54D
  8
0
  6
CONTINUOUS
 62
    30
 10
6.946171642299987
 20
85.36556793519998
 30
0.0
  0
VERTEX
  5
54E
  8
0
  6
CONTINUOUS
 62
    30
 10
6.615329088900012
 20
85.73477614609999
 30
0.0
  0
VERTEX
  5
54F
  8
0
  6
CONTINUOUS
 62
    30
 10
6.200979963799966
 20
85.97603185859998
 30
0.0
  0
VERTEX
  5
550
  8
0
  6
CONTINUOUS
 62
    30
 10
5.717234241699998
 20
86.08112759379998
 30
0.0
  0
VERTEX
  5
551
  8
0
  6
CONTINUOUS
 62
    30
 10
5.180565495699966
 20
86.04648121380001
 30
0.0
  0
VERTEX
  5
552
  8
0
  6
CONTINUOUS
 62
    30
 10
4.609249117899992
 20
85.87327397510001
 30
0.0
  0
VERTEX
  5
553
  8
0
  6
CONTINUOUS
 62
    30
 10
4.022740684200016
 20
85.56739585140002
 30
0.0
  0
VERTEX
  5
554
  8
0
  6
CONTINUOUS
 62
    30
 10
3.441013016199975
 20
85.13928184029999
 30
0.0
  0
VERTEX
  5
555
  8
0
  6
CONTINUOUS
 62
    30
 10
2.883876212899963
 20
84.6035072597
 30
0.0
  0
VERTEX
  5
556
  8
0
  6
CONTINUOUS
 62
    30
 10
2.370302787399965
 20
83.97830081699999
 30
0.0
  0
VERTEX
  5
557
  8
0
  6
CONTINUOUS
 62
    30
 10
1.917782117800016
 20
83.28495292909997
 30
0.0
  0
VERTEX
  5
558
  8
0
  6
CONTINUOUS
 62
    30
 10
1.541723898499981
 20
82.54709415219998
 30
0.0
  0
VERTEX
  5
559
  8
0
  6
CONTINUOUS
 62
    30
 10
1.254934515299965
 20
81.78984536629997
 30
0.0
  0
VERTEX
  5
55A
  8
0
  6
CONTINUOUS
 62
    30
 10
1.067180512699963
 20
81.03898173499999
 30
0.0
  0
VERTEX
  5
55B
  8
0
  6
CONTINUOUS
 62
    30
 10
0.9848548758999982
 20
80.32009518130002
 30
0.0
  0
VERTEX
  5
55C
  8
0
  6
CONTINUOUS
 62
    30
 10
1.010762016800015
 20
79.65764287939999
 30
0.0
  0
VERTEX
  5
55D
  8
0
  6
CONTINUOUS
 62
    30
 10
1.144019156599995
 20
79.07418461399999
 30
0.0
  0
VERTEX
  5
55E
  8
0
  6
CONTINUOUS
 62
    30
 10
1.380088264899996
 20
78.58961033759999
 30
0.0
  0
VERTEX
  5
55F
  8
0
  6
CONTINUOUS
 62
    30
 10
1.710930818299971
 20
78.22041429410001
 30
0.0
  0
VERTEX
  5
560
  8
0
  6
CONTINUOUS
 62
    30
 10
2.125279943299972
 20
77.97915858160002
 30
0.0
  0
VERTEX
  5
561
  8
0
  6
CONTINUOUS
 62
    30
 10
2.609025665499985
 20
77.87406284640002
 30
0.0
  0
VERTEX
  5
562
  8
0
  6
CONTINUOUS
 62
    30
 10
3.145694411500017
 20
77.90870922639999
 30
0.0
  0
VERTEX
  5
563
  8
0
  6
CONTINUOUS
 62
    30
 10
3.717010789299991
 20
78.08191646509999
 30
0.0
  0
VERTEX
  5
564
  8
0
  6
CONTINUOUS
 62
    30
 10
4.112520288499979
 20
78.27440622749998
 30
0.0
  0
SEQEND
  5
549
  8
0
  6
CONTINUOUS
 62
    30
  0
POLYLINE
  5
254
  8
0
  6
CONTINUOUS
 62
    30
 66
     1
 10
0.0
 20
0.0
 30
0.0
  0
VERTEX
  5
566
  8
0
  6
CONTINUOUS
 62
    30
 10
5.648054141099976
 20
-35.27819405560001
 30
0.0
  0
VERTEX
  5
567
  8
0
  6
CONTINUOUS
 62
    30
 10
6.208280629400008
 20
-35.66362109779999
 30
0.0
  0
VERTEX
  5
568
  8
0
  6
CONTINUOUS
 62
    30
 10
6.644059327799994
 20
-36.09935256860001
 30
0.0
  0
VERTEX
  5
569
  8
0
  6
CONTINUOUS
 62
    30
 10
6.942149417099984
 20
-36.57214898849998
 30
0.0
  0
VERTEX
  5
56A
  8
0
  6
CONTINUOUS
 62
    30
 10
7.093493810999973
 20
-37.06764462550001
 30
0.0
  0
VERTEX
  5
56B
  8
0
  6
CONTINUOUS
 62
    30
 10
7.093493810999973
 20
-37.57078395360003
 30
0.0
  0
VERTEX
  5
56C
  8
0
  6
CONTINUOUS
 62
    30
 10
6.942149417099984
 20
-38.0662795906
 30
0.0
  0
VERTEX
  5
56D
  8
0
  6
CONTINUOUS
 62
    30
 10
6.644059327799994
 20
-38.53907601050003
 30
0.0
  0
VERTEX
  5
56E
  8
0
  6
CONTINUOUS
 62
    30
 10
6.208280629400008
 20
-38.97480748129999
 30
0.0
  0
VERTEX
  5
56F
  8
0
  6
CONTINUOUS
 62
    30
 10
5.648054141099976
 20
-39.36023452350003
 30
0.0
  0
VERTEX
  5
570
  8
0
  6
CONTINUOUS
 62
    30
 10
4.980402579999975
 20
-39.6836463912
 30
0.0
  0
VERTEX
  5
571
  8
0
  6
CONTINUOUS
 62
    30
 10
4.225611750999974
 20
-39.93521607899999
 30
0.0
  0
VERTEX
  5
572
  8
0
  6
CONTINUOUS
 62
    30
 10
3.406615590199976
 20
-40.10729982459998
 30
0.0
  0
VERTEX
  5
573
  8
0
  6
CONTINUOUS
 62
    30
 10
2.548298971500003
 20
-40.1946690835
 30
0.0
  0
VERTEX
  5
574
  8
0
  6
CONTINUOUS
 62
    30
 10
1.67674165699998
 20
-40.1946690835
 30
0.0
  0
VERTEX
  5
575
  8
0
  6
CONTINUOUS
 62
    30
 10
0.8184250383000062
 20
-40.10729982459998
 30
0.0
  0
VERTEX
  5
576
  8
0
  6
CONTINUOUS
 62
    30
 10
-0.0005711226000358
 20
-39.93521607899999
 30
0.0
  0
VERTEX
  5
577
  8
0
  6
CONTINUOUS
 62
    30
 10
-0.7553619514999923
 20
-39.6836463912
 30
0.0
  0
VERTEX
  5
578
  8
0
  6
CONTINUOUS
 62
    30
 10
-1.423013512700038
 20
-39.36023452350003
 30
0.0
  0
VERTEX
  5
579
  8
0
  6
CONTINUOUS
 62
    30
 10
-1.983240001000013
 20
-38.97480748129999
 30
0.0
  0
VERTEX
  5
57A
  8
0
  6
CONTINUOUS
 62
    30
 10
-2.419018699399999
 20
-38.53907601050003
 30
0.0
  0
VERTEX
  5
57B
  8
0
  6
CONTINUOUS
 62
    30
 10
-2.717108788600001
 20
-38.0662795906
 30
0.0
  0
VERTEX
  5
57C
  8
0
  6
CONTINUOUS
 62
    30
 10
-2.868453182499991
 20
-37.57078395360003
 30
0.0
  0
VERTEX
  5
57D
  8
0
  6
CONTINUOUS
 62
    30
 10
-2.868453182499991
 20
-37.06764462550001
 30
0.0
  0
VERTEX
  5
57E
  8
0
  6
CONTINUOUS
 62
    30
 10
-2.717108788600001
 20
-36.57214898849998
 30
0.0
  0
VERTEX
  5
57F
  8
0
  6
CONTINUOUS
 62
    30
 10
-2.419018699399999
 20
-36.09935256860001
 30
0.0
  0
VERTEX
  5
580
  8
0
  6
CONTINUOUS
 62
    30
 10
-1.983240001000013
 20
-35.66362109779999
 30
0.0
  0
VERTEX
  5
581
  8
0
  6
CONTINUOUS
 62
    30
 10
-1.423013512700038
 20
-35.27819405560001
 30
0.0
  0
VERTEX
  5
582
  8
0
  6
CONTINUOUS
 62
    30
 10
-0.7553619514999923
 20
-34.95478218800002
 30
0.0
  0
VERTEX
  5
583
  8
0
  6
CONTINUOUS
 62
    30
 10
-0.0005711226000358
 20
-34.70321250019998
 30
0.0
  0
VERTEX
  5
584
  8
0
  6
CONTINUOUS
 62
    30
 10
0.1125202318999641
 20
-34.67374963719999
 30
0.0
  0
SEQEND
  5
565
  8
0
  6
CONTINUOUS
 62
    30
  0
ARC
  5
275
  8
0
  6
CONTINUOUS
 62
    30
 10
2.629377044699993
 20
-40.6941958882
 30
0.0
 40
6.200442505407453
 50
60.86633756739992
 51
76.16069521219983
  0
POLYLINE
  5
276
  8
0
  6
CONTINUOUS
 62
    30
 66
     1
 10
0.0
 20
0.0
 30
0.0
  0
VERTEX
  5
586
  8
0
  6
CONTINUOUS
 62
    30
 10
7.112520149600016
 20
-40.17710683910002
 30
0.0
  0
VERTEX
  5
587
  8
0
  6
CONTINUOUS
 62
    30
 10
7.093493810999973
 20
-40.4286765032
 30
0.0
  0
VERTEX
  5
588
  8
0
  6
CONTINUOUS
 62
    30
 10
6.942149417099984
 20
-40.92417214020003
 30
0.0
  0
VERTEX
  5
589
  8
0
  6
CONTINUOUS
 62
    30
 10
6.644059327799994
 20
-41.39696856009999
 30
0.0
  0
VERTEX
  5
58A
  8
0
  6
CONTINUOUS
 62
    30
 10
6.208280629400008
 20
-41.83270003090001
 30
0.0
  0
VERTEX
  5
58B
  8
0
  6
CONTINUOUS
 62
    30
 10
5.648054141099976
 20
-42.21812707309999
 30
0.0
  0
VERTEX
  5
58C
  8
0
  6
CONTINUOUS
 62
    30
 10
4.980402579999975
 20
-42.54153894069998
 30
0.0
  0
VERTEX
  5
58D
  8
0
  6
CONTINUOUS
 62
    30
 10
4.225611750999974
 20
-42.79310862850002
 30
0.0
  0
VERTEX
  5
58E
  8
0
  6
CONTINUOUS
 62
    30
 10
3.406615590199976
 20
-42.96519237410001
 30
0.0
  0
VERTEX
  5
58F
  8
0
  6
CONTINUOUS
 62
    30
 10
2.548298971500003
 20
-43.05256163299998
 30
0.0
  0
VERTEX
  5
590
  8
0
  6
CONTINUOUS
 62
    30
 10
1.67674165699998
 20
-43.05256163299998
 30
0.0
  0
VERTEX
  5
591
  8
0
  6
CONTINUOUS
 62
    30
 10
0.8184250383000062
 20
-42.96519237410001
 30
0.0
  0
VERTEX
  5
592
  8
0
  6
CONTINUOUS
 62
    30
 10
-0.0005711226000358
 20
-42.79310862850002
 30
0.0
  0
VERTEX
  5
593
  8
0
  6
CONTINUOUS
 62
    30
 10
-0.7553619514999923
 20
-42.54153894069998
 30
0.0
  0
VERTEX
  5
594
  8
0
  6
CONTINUOUS
 62
    30
 10
-1.423013512700038
 20
-42.21812707309999
 30
0.0
  0
VERTEX
  5
595
  8
0
  6
CONTINUOUS
 62
    30
 10
-1.983240001000013
 20
-41.83270003090001
 30
0.0
  0
VERTEX
  5
596
  8
0
  6
CONTINUOUS
 62
    30
 10
-2.419018699399999
 20
-41.39696856009999
 30
0.0
  0
VERTEX
  5
597
  8
0
  6
CONTINUOUS
 62
    30
 10
-2.717108788600001
 20
-40.92417214020003
 30
0.0
  0
VERTEX
  5
598
  8
0
  6
CONTINUOUS
 62
    30
 10
-2.868453182499991
 20
-40.4286765032
 30
0.0
  0
VERTEX
  5
599
  8
0
  6
CONTINUOUS
 62
    30
 10
-2.887479521200021
 20
-40.17710683910002
 30
0.0
  0
SEQEND
  5
585
  8
0
  6
CONTINUOUS
 62
    30
  0
ARC
  5
28C
  8
0
  6
CONTINUOUS
 62
    30
 10
0.9823139733999824
 20
-37.30928858409999
 30
0.0
 40
0.9049684481436081
 50
163.9729536478012
 51
249.3352589642991
  0
POLYLINE
  5
28D
  8
0
  6
CONTINUOUS
 62
    30
 66
     1
 10
0.0
 20
0.0
 30
0.0
  0
VERTEX
  5
59B
  8
0
  6
CONTINUOUS
 62
    30
 10
4.112520314199969
 20
-37.0594348619
 30
0.0
  0
VERTEX
  5
59C
  8
0
  6
CONTINUOUS
 62
    30
 10
4.151772777299982
 20
-37.19819084480002
 30
0.0
  0
VERTEX
  5
59D
  8
0
  6
CONTINUOUS
 62
    30
 10
4.132712358999982
 20
-37.52029300430002
 30
0.0
  0
VERTEX
  5
59E
  8
0
  6
CONTINUOUS
 62
    30
 10
3.96382347499997
 20
-37.82748208250001
 30
0.0
  0
VERTEX
  5
59F
  8
0
  6
CONTINUOUS
 62
    30
 10
3.657631981599991
 20
-38.09697526650001
 30
0.0
  0
VERTEX
  5
5A0
  8
0
  6
CONTINUOUS
 62
    30
 10
3.236846643799993
 20
-38.30878551120003
 30
0.0
  0
VERTEX
  5
5A1
  8
0
  6
CONTINUOUS
 62
    30
 10
2.732675175899999
 20
-38.44720376089998
 30
0.0
  0
VERTEX
  5
5A2
  8
0
  6
CONTINUOUS
 62
    30
 10
2.1825096014
 20
-38.50196418169998
 30
0.0
  0
VERTEX
  5
5A3
  8
0
  6
CONTINUOUS
 62
    30
 10
1.627153255499991
 20
-38.4690054687
 30
0.0
  0
VERTEX
  5
5A4
  8
0
  6
CONTINUOUS
 62
    30
 10
1.107794434200002
 20
-38.3507719465
 30
0.0
  0
VERTEX
  5
5A5
  8
0
  6
CONTINUOUS
 62
    30
 10
0.662951405699971
 20
-38.1560326083
 30
0.0
  0
SEQEND
  5
59A
  8
0
  6
CONTINUOUS
 62
    30
  0
POLYLINE
  5
29A
  8
0
  6
CONTINUOUS
 62
    30
 66
     1
 10
0.0
 20
0.0
 30
0.0
  0
VERTEX
  5
5A7
  8
0
  6
CONTINUOUS
 62
    30
 10
6.612520231899964
 20
-48.34251477549998
 30
0.0
  0
VERTEX
  5
5A8
  8
0
  6
CONTINUOUS
 62
    30
 10
6.569367292099969
 20
-48.70141669200001
 30
0.0
  0
VERTEX
  5
5A9
  8
0
  6
CONTINUOUS
 62
    30
 10
6.379243023100003
 20
-49.16807161370002
 30
0.0
  0
VERTEX
  5
5AA
  8
0
  6
CONTINUOUS
 62
    30
 10
6.043821115799972
 20
-49.60661336980002
 30
0.0
  0
VERTEX
  5
5AB
  8
0
  6
CONTINUOUS
 62
    30
 10
5.574523222200014
 20
-50.00210764899998
 30
0.0
  0
VERTEX
  5
5AC
  8
0
  6
CONTINUOUS
 62
    30
 10
4.987330982699973
 20
-50.34108651349999
 30
0.0
  0
VERTEX
  5
5AD
  8
0
  6
CONTINUOUS
 62
    30
 10
4.302240566199998
 20
-50.61200642080001
 30
0.0
  0
VERTEX
  5
5AE
  8
0
  6
CONTINUOUS
 62
    30
 10
3.542581652699994
 20
-50.80564136620001
 30
0.0
  0
VERTEX
  5
5AF
  8
0
  6
CONTINUOUS
 62
    30
 10
2.734224031400004
 20
-50.91539777039998
 30
0.0
  0
VERTEX
  5
5B0
  8
0
  6
CONTINUOUS
 62
    30
 10
1.904694698100002
 20
-50.93753752039999
 30
0.0
  0
VERTEX
  5
5B1
  8
0
  6
CONTINUOUS
 62
    30
 10
1.082242742599988
 20
-50.87130702479999
 30
0.0
  0
VERTEX
  5
5B2
  8
0
  6
CONTINUOUS
 62
    30
 10
0.2948757336000085
 20
-50.71896144990001
 30
0.0
  0
VERTEX
  5
5B3
  8
0
  6
CONTINUOUS
 62
    30
 10
-0.4305935657999953
 20
-50.48568885230003
 30
0.0
  0
VERTEX
  5
5B4
  8
0
  6
CONTINUOUS
 62
    30
 10
-1.069460064099985
 20
-50.179432948
 30
0.0
  0
VERTEX
  5
5B5
  8
0
  6
CONTINUOUS
 62
    30
 10
-1.599968332099991
 20
-49.81062316880002
 30
0.0
  0
VERTEX
  5
5B6
  8
0
  6
CONTINUOUS
 62
    30
 10
-2.004052106500012
 20
-49.39181865680001
 30
0.0
  0
VERTEX
  5
5B7
  8
0
  6
CONTINUOUS
 62
    30
 10
-2.267950976500003
 20
-48.9372813576
 30
0.0
  0
VERTEX
  5
5B8
  8
0
  6
CONTINUOUS
 62
    30
 10
-2.382677990800005
 20
-48.46248994989998
 30
0.0
  0
VERTEX
  5
5B9
  8
0
  6
CONTINUOUS
 62
    30
 10
-2.387479603500026
 20
-48.34251477549998
 30
0.0
  0
SEQEND
  5
5A6
  8
0
  6
CONTINUOUS
 62
    30
  0
POLYLINE
  5
2AF
  8
0
  6
CONTINUOUS
 62
    30
 66
     1
 10
0.0
 20
0.0
 30
0.0
  0
VERTEX
  5
5BB
  8
0
  6
CONTINUOUS
 62
    30
 10
3.447837502600009
 20
-38.21715665829998
 30
0.0
  0
VERTEX
  5
5BC
  8
0
  6
CONTINUOUS
 62
    30
 10
3.594287645199984
 20
-38.10166336920003
 30
0.0
  0
VERTEX
  5
5BD
  8
0
  6
CONTINUOUS
 62
    30
 10
3.617820630300002
 20
-38.07941019800001
 30
0.0
  0
SEQEND
  5
5BA
  8
0
  6
CONTINUOUS
 62
    30
  0
LINE
  5
2B4
  8
0
  6
CONTINUOUS
 62
    30
 10
0.6072199981999802
 20
-38.07941019800001
 30
0.0
 11
0.7772031257999856
 21
-38.21715665829998
 31
0.0
  0
POLYLINE
  5
2B5
  8
0
  6
CONTINUOUS
 62
    30
 66
     1
 10
0.0
 20
0.0
 30
0.0
  0
VERTEX
  5
5BF
  8
0
  6
CONTINUOUS
 62
    30
 10
6.612520396599962
 20
-47.08434530699998
 30
0.0
  0
VERTEX
  5
5C0
  8
0
  6
CONTINUOUS
 62
    30
 10
6.644059327799994
 20
-47.12265305450001
 30
0.0
  0
VERTEX
  5
5C1
  8
0
  6
CONTINUOUS
 62
    30
 10
6.942149417099984
 20
-47.59544947440003
 30
0.0
  0
VERTEX
  5
5C2
  8
0
  6
CONTINUOUS
 62
    30
 10
7.093493810999973
 20
-48.09094511149999
 30
0.0
  0
VERTEX
  5
5C3
  8
0
  6
CONTINUOUS
 62
    30
 10
7.093493810999973
 20
-48.59408443950002
 30
0.0
  0
VERTEX
  5
5C4
  8
0
  6
CONTINUOUS
 62
    30
 10
6.942149417099984
 20
-49.0895800765
 30
0.0
  0
VERTEX
  5
5C5
  8
0
  6
CONTINUOUS
 62
    30
 10
6.644059327799994
 20
-49.56237649650001
 30
0.0
  0
VERTEX
  5
5C6
  8
0
  6
CONTINUOUS
 62
    30
 10
6.208280629400008
 20
-49.99810796719999
 30
0.0
  0
VERTEX
  5
5C7
  8
0
  6
CONTINUOUS
 62
    30
 10
5.648054141099976
 20
-50.38353500940002
 30
0.0
  0
VERTEX
  5
5C8
  8
0
  6
CONTINUOUS
 62
    30
 10
4.980402579999975
 20
-50.7069468771
 30
0.0
  0
VERTEX
  5
5C9
  8
0
  6
CONTINUOUS
 62
    30
 10
4.225611750999974
 20
-50.95851656489998
 30
0.0
  0
VERTEX
  5
5CA
  8
0
  6
CONTINUOUS
 62
    30
 10
3.406615590199976
 20
-51.13060031050003
 30
0.0
  0
VERTEX
  5
5CB
  8
0
  6
CONTINUOUS
 62
    30
 10
2.548298971500003
 20
-51.2179695694
 30
0.0
  0
VERTEX
  5
5CC
  8
0
  6
CONTINUOUS
 62
    30
 10
1.67674165699998
 20
-51.2179695694
 30
0.0
  0
VERTEX
  5
5CD
  8
0
  6
CONTINUOUS
 62
    30
 10
0.8184250383000062
 20
-51.13060031050003
 30
0.0
  0
VERTEX
  5
5CE
  8
0
  6
CONTINUOUS
 62
    30
 10
-0.0005711226000358
 20
-50.95851656489998
 30
0.0
  0
VERTEX
  5
5CF
  8
0
  6
CONTINUOUS
 62
    30
 10
-0.7553619514999923
 20
-50.7069468771
 30
0.0
  0
VERTEX
  5
5D0
  8
0
  6
CONTINUOUS
 62
    30
 10
-1.423013512700038
 20
-50.38353500940002
 30
0.0
  0
VERTEX
  5
5D1
  8
0
  6
CONTINUOUS
 62
    30
 10
-1.983240001000013
 20
-49.99810796719999
 30
0.0
  0
VERTEX
  5
5D2
  8
0
  6
CONTINUOUS
 62
    30
 10
-2.419018699399999
 20
-49.56237649650001
 30
0.0
  0
VERTEX
  5
5D3
  8
0
  6
CONTINUOUS
 62
    30
 10
-2.717108788600001
 20
-49.0895800765
 30
0.0
  0
VERTEX
  5
5D4
  8
0
  6
CONTINUOUS
 62
    30
 10
-2.868453182499991
 20
-48.59408443950002
 30
0.0
  0
VERTEX
  5
5D5
  8
0
  6
CONTINUOUS
 62
    30
 10
-2.868453182499991
 20
-48.09094511149999
 30
0.0
  0
VERTEX
  5
5D6
  8
0
  6
CONTINUOUS
 62
    30
 10
-2.717108788600001
 20
-47.59544947440003
 30
0.0
  0
VERTEX
  5
5D7
  8
0
  6
CONTINUOUS
 62
    30
 10
-2.419018699399999
 20
-47.12265305450001
 30
0.0
  0
VERTEX
  5
5D8
  8
0
  6
CONTINUOUS
 62
    30
 10
-2.387479768100036
 20
-47.08434530699998
 30
0.0
  0
SEQEND
  5
5BE
  8
0
  6
CONTINUOUS
 62
    30
  0
POLYLINE
  5
2D1
  8
0
  6
CONTINUOUS
 62
    30
 66
     1
 10
0.0
 20
0.0
 30
0.0
  0
VERTEX
  5
5DA
  8
0
  6
CONTINUOUS
 62
    30
 10
7.112520149600016
 20
-51.2004073251
 30
0.0
  0
VERTEX
  5
5DB
  8
0
  6
CONTINUOUS
 62
    30
 10
7.093493810999973
 20
-51.45197698909999
 30
0.0
  0
VERTEX
  5
5DC
  8
0
  6
CONTINUOUS
 62
    30
 10
6.942149417099984
 20
-51.94747262610002
 30
0.0
  0
VERTEX
  5
5DD
  8
0
  6
CONTINUOUS
 62
    30
 10
6.644059327799994
 20
-52.42026904599999
 30
0.0
  0
VERTEX
  5
5DE
  8
0
  6
CONTINUOUS
 62
    30
 10
6.208280629400008
 20
-52.85600051680001
 30
0.0
  0
VERTEX
  5
5DF
  8
0
  6
CONTINUOUS
 62
    30
 10
5.648054141099976
 20
-53.24142755899999
 30
0.0
  0
VERTEX
  5
5E0
  8
0
  6
CONTINUOUS
 62
    30
 10
4.980402579999975
 20
-53.56483942670002
 30
0.0
  0
VERTEX
  5
5E1
  8
0
  6
CONTINUOUS
 62
    30
 10
4.225611750999974
 20
-53.8164091145
 30
0.0
  0
VERTEX
  5
5E2
  8
0
  6
CONTINUOUS
 62
    30
 10
3.406615590199976
 20
-53.9884928601
 30
0.0
  0
VERTEX
  5
5E3
  8
0
  6
CONTINUOUS
 62
    30
 10
2.548298971500003
 20
-54.07586211900002
 30
0.0
  0
VERTEX
  5
5E4
  8
0
  6
CONTINUOUS
 62
    30
 10
1.67674165699998
 20
-54.07586211900002
 30
0.0
  0
VERTEX
  5
5E5
  8
0
  6
CONTINUOUS
 62
    30
 10
0.8184250383000062
 20
-53.9884928601
 30
0.0
  0
VERTEX
  5
5E6
  8
0
  6
CONTINUOUS
 62
    30
 10
-0.0005711226000358
 20
-53.8164091145
 30
0.0
  0
VERTEX
  5
5E7
  8
0
  6
CONTINUOUS
 62
    30
 10
-0.7553619514999923
 20
-53.56483942670002
 30
0.0
  0
VERTEX
  5
5E8
  8
0
  6
CONTINUOUS
 62
    30
 10
-1.423013512700038
 20
-53.24142755899999
 30
0.0
  0
VERTEX
  5
5E9
  8
0
  6
CONTINUOUS
 62
    30
 10
-1.983240001000013
 20
-52.85600051680001
 30
0.0
  0
VERTEX
  5
5EA
  8
0
  6
CONTINUOUS
 62
    30
 10
-2.419018699399999
 20
-52.42026904599999
 30
0.0
  0
VERTEX
  5
5EB
  8
0
  6
CONTINUOUS
 62
    30
 10
-2.717108788600001
 20
-51.94747262610002
 30
0.0
  0
VERTEX
  5
5EC
  8
0
  6
CONTINUOUS
 62
    30
 10
-2.868453182499991
 20
-51.45197698909999
 30
0.0
  0
VERTEX
  5
5ED
  8
0
  6
CONTINUOUS
 62
    30
 10
-2.887479521200021
 20
-51.2004073251
 30
0.0
  0
SEQEND
  5
5D9
  8
0
  6
CONTINUOUS
 62
    30
  0
POLYLINE
  5
2E7
  8
0
  6
CONTINUOUS
 62
    30
 66
     1
 10
0.0
 20
0.0
 30
0.0
  0
VERTEX
  5
5EF
  8
0
  6
CONTINUOUS
 62
    30
 10
4.112520314199969
 20
-37.31921428959998
 30
0.0
  0
VERTEX
  5
5F0
  8
0
  6
CONTINUOUS
 62
    30
 10
4.10114535729997
 20
-37.44217850040002
 30
0.0
  0
VERTEX
  5
5F1
  8
0
  6
CONTINUOUS
 62
    30
 10
3.960582160099989
 20
-37.76062903529999
 30
0.0
  0
VERTEX
  5
5F2
  8
0
  6
CONTINUOUS
 62
    30
 10
3.670299908400011
 20
-38.04331878710002
 30
0.0
  0
VERTEX
  5
5F3
  8
0
  6
CONTINUOUS
 62
    30
 10
3.253815648199975
 20
-38.26734590230001
 30
0.0
  0
VERTEX
  5
5F4
  8
0
  6
CONTINUOUS
 62
    30
 10
2.744870391199981
 20
-38.41456099269999
 30
0.0
  0
VERTEX
  5
5F5
  8
0
  6
CONTINUOUS
 62
    30
 10
2.184695969100005
 20
-38.47303764309999
 30
0.0
  0
VERTEX
  5
5F6
  8
0
  6
CONTINUOUS
 62
    30
 10
1.618674247999991
 20
-38.43803841710002
 30
0.0
  0
VERTEX
  5
5F7
  8
0
  6
CONTINUOUS
 62
    30
 10
1.092661040199971
 20
-38.31239864349999
 30
0.0
  0
VERTEX
  5
5F8
  8
0
  6
CONTINUOUS
 62
    30
 10
0.6492706939999948
 20
-38.10629704119998
 30
0.0
  0
VERTEX
  5
5F9
  8
0
  6
CONTINUOUS
 62
    30
 10
0.3244241730000113
 20
-37.8364306583
 30
0.0
  0
VERTEX
  5
5FA
  8
0
  6
CONTINUOUS
 62
    30
 10
0.1444385670999964
 20
-37.52466248420001
 30
0.0
  0
VERTEX
  5
5FB
  8
0
  6
CONTINUOUS
 62
    30
 10
0.1125203141999691
 20
-37.31921428959998
 30
0.0
  0
SEQEND
  5
5EE
  8
0
  6
CONTINUOUS
 62
    30
  0
POLYLINE
  5
2F6
  8
0
  6
CONTINUOUS
 62
    30
 66
     1
 10
0.0
 20
0.0
 30
0.0
  0
VERTEX
  5
5FD
  8
0
  6
CONTINUOUS
 62
    30
 10
3.34995721949997
 20
-58.44709125029999
 30
0.0
  0
VERTEX
  5
5FE
  8
0
  6
CONTINUOUS
 62
    30
 10
3.729309478400012
 20
-58.11934138560002
 30
0.0
  0
VERTEX
  5
5FF
  8
0
  6
CONTINUOUS
 62
    30
 10
3.862520355399965
 20
-57.73273413039999
 30
0.0
  0
SEQEND
  5
5FC
  8
0
  6
CONTINUOUS
 62
    30
  0
POLYLINE
  5
2FB
  8
0
  6
CONTINUOUS
 62
    30
 66
     1
 10
0.0
 20
0.0
 30
0.0
  0
VERTEX
  5
601
  8
0
  6
CONTINUOUS
 62
    30
 10
0.3625202731000172
 20
-57.73273413039999
 30
0.0
  0
VERTEX
  5
602
  8
0
  6
CONTINUOUS
 62
    30
 10
0.4957311499999832
 20
-58.11934138560002
 30
0.0
  0
VERTEX
  5
603
  8
0
  6
CONTINUOUS
 62
    30
 10
0.8750834090000126
 20
-58.44709125029999
 30
0.0
  0
VERTEX
  5
604
  8
0
  6
CONTINUOUS
 62
    30
 10
1.442824342800009
 20
-58.66608664789999
 30
0.0
  0
VERTEX
  5
605
  8
0
  6
CONTINUOUS
 62
    30
 10
2.112520314199969
 20
-58.7429876503
 30
0.0
  0
VERTEX
  5
606
  8
0
  6
CONTINUOUS
 62
    30
 10
2.782216285599986
 20
-58.66608664789999
 30
0.0
  0
VERTEX
  5
607
  8
0
  6
CONTINUOUS
 62
    30
 10
3.34995721949997
 20
-58.44709125029999
 30
0.0
  0
SEQEND
  5
600
  8
0
  6
CONTINUOUS
 62
    30
  0
POLYLINE
  5
304
  8
0
  6
CONTINUOUS
 62
    30
 66
     1
 10
0.0
 20
0.0
 30
0.0
  0
VERTEX
  5
609
  8
0
  6
CONTINUOUS
 62
    30
 10
3.173180495199972
 20
-58.75331069250001
 30
0.0
  0
VERTEX
  5
60A
  8
0
  6
CONTINUOUS
 62
    30
 10
3.460106752699971
 20
-58.52131877950001
 30
0.0
  0
VERTEX
  5
60B
  8
0
  6
CONTINUOUS
 62
    30
 10
3.59195433970001
 20
-58.28390526710001
 30
0.0
  0
SEQEND
  5
608
  8
0
  6
CONTINUOUS
 62
    30
  0
POLYLINE
  5
309
  8
0
  6
CONTINUOUS
 62
    30
 66
     1
 10
0.0
 20
0.0
 30
0.0
  0
VERTEX
  5
60D
  8
0
  6
CONTINUOUS
 62
    30
 10
0.6289941754999973
 20
-58.26898831279999
 30
0.0
  0
VERTEX
  5
60E
  8
0
  6
CONTINUOUS
 62
    30
 10
0.7151337315999626
 20
-58.45577761459998
 30
0.0
  0
VERTEX
  5
60F
  8
0
  6
CONTINUOUS
 62
    30
 10
0.9678942472999665
 20
-58.70065549669999
 30
0.0
  0
VERTEX
  5
610
  8
0
  6
CONTINUOUS
 62
    30
 10
1.344692773500015
 20
-58.88488653000002
 30
0.0
  0
VERTEX
  5
611
  8
0
  6
CONTINUOUS
 62
    30
 10
1.804697307600009
 20
-58.98850642579998
 30
0.0
  0
VERTEX
  5
612
  8
0
  6
CONTINUOUS
 62
    30
 10
2.298059261300011
 20
-59.00028631510003
 30
0.0
  0
VERTEX
  5
613
  8
0
  6
CONTINUOUS
 62
    30
 10
2.771315172000016
 20
-58.91894969520001
 30
0.0
  0
VERTEX
  5
614
  8
0
  6
CONTINUOUS
 62
    30
 10
3.173180495199972
 20
-58.75331069250001
 30
0.0
  0
SEQEND
  5
60C
  8
0
  6
CONTINUOUS
 62
    30
  0
ARC
  5
313
  8
0
  6
CONTINUOUS
 62
    30
 10
2.89308481339998
 20
-58.2518758727
 30
0.0
 40
0.7213438569521083
 50
292.8485774552993
 51
355.8312933662996
  0
POLYLINE
  5
314
  8
0
  6
CONTINUOUS
 62
    30
 66
     1
 10
0.0
 20
0.0
 30
0.0
  0
VERTEX
  5
616
  8
0
  6
CONTINUOUS
 62
    30
 10
0.6125203964999741
 20
-58.30431286850001
 30
0.0
  0
VERTEX
  5
617
  8
0
  6
CONTINUOUS
 62
    30
 10
0.6138016772000015
 20
-58.34009743000001
 30
0.0
  0
VERTEX
  5
618
  8
0
  6
CONTINUOUS
 62
    30
 10
0.7151337315999626
 20
-58.61908587980003
 30
0.0
  0
VERTEX
  5
619
  8
0
  6
CONTINUOUS
 62
    30
 10
0.9678942472999665
 20
-58.86396376189998
 30
0.0
  0
VERTEX
  5
61A
  8
0
  6
CONTINUOUS
 62
    30
 10
1.344692773500015
 20
-59.0481947952
 30
0.0
  0
VERTEX
  5
61B
  8
0
  6
CONTINUOUS
 62
    30
 10
1.804697307600009
 20
-59.15181469100003
 30
0.0
  0
VERTEX
  5
61C
  8
0
  6
CONTINUOUS
 62
    30
 10
2.298059261300011
 20
-59.16359458030001
 30
0.0
  0
VERTEX
  5
61D
  8
0
  6
CONTINUOUS
 62
    30
 10
2.771315172000016
 20
-59.0822579604
 30
0.0
  0
VERTEX
  5
61E
  8
0
  6
CONTINUOUS
 62
    30
 10
3.173180495199972
 20
-58.9166189577
 30
0.0
  0
SEQEND
  5
615
  8
0
  6
CONTINUOUS
 62
    30
  0
ARC
  5
31F
  8
0
  6
CONTINUOUS
 62
    30
 10
3.095605519299966
 20
-58.30904354820001
 30
0.0
 40
0.753833185756224
 50
289.7192238351012
 51
22.51730449299964
  0
POLYLINE
  5
320
  8
0
  6
CONTINUOUS
 62
    30
 66
     1
 10
0.0
 20
0.0
 30
0.0
  0
VERTEX
  5
620
  8
0
  6
CONTINUOUS
 62
    30
 10
0.4496662497999751
 20
-57.98948385339998
 30
0.0
  0
VERTEX
  5
621
  8
0
  6
CONTINUOUS
 62
    30
 10
0.3637440956999853
 20
-58.26653830890001
 30
0.0
  0
VERTEX
  5
622
  8
0
  6
CONTINUOUS
 62
    30
 10
0.422150078799973
 20
-58.56578571429998
 30
0.0
  0
VERTEX
  5
623
  8
0
  6
CONTINUOUS
 62
    30
 10
0.630752983299999
 20
-58.84180012069999
 30
0.0
  0
VERTEX
  5
624
  8
0
  6
CONTINUOUS
 62
    30
 10
0.9710173432000033
 20
-59.07005645700002
 30
0.0
  0
VERTEX
  5
625
  8
0
  6
CONTINUOUS
 62
    30
 10
1.412709267100013
 20
-59.23027308220003
 30
0.0
  0
VERTEX
  5
626
  8
0
  6
CONTINUOUS
 62
    30
 10
1.916582496599972
 20
-59.3082140862
 30
0.0
  0
VERTEX
  5
627
  8
0
  6
CONTINUOUS
 62
    30
 10
2.437865667300002
 20
-59.29695407880001
 30
0.0
  0
VERTEX
  5
628
  8
0
  6
CONTINUOUS
 62
    30
 10
2.93024042159999
 20
-59.19749354790002
 30
0.0
  0
VERTEX
  5
629
  8
0
  6
CONTINUOUS
 62
    30
 10
3.34995721949997
 20
-59.01866998840001
 30
0.0
  0
SEQEND
  5
61F
  8
0
  6
CONTINUOUS
 62
    30
  0
ARC
  5
32C
  8
0
  6
CONTINUOUS
 62
    30
 10
3.007883649699977
 20
-58.47712385519998
 30
0.0
 40
0.8576769190294761
 50
293.505514274099
 51
355.1743461284011
  0
POLYLINE
  5
32D
  8
0
  6
CONTINUOUS
 62
    30
 66
     1
 10
0.0
 20
0.0
 30
0.0
  0
VERTEX
  5
62B
  8
0
  6
CONTINUOUS
 62
    30
 10
0.3625202731000172
 20
-58.54927507619999
 30
0.0
  0
VERTEX
  5
62C
  8
0
  6
CONTINUOUS
 62
    30
 10
0.422150078799973
 20
-58.81074792200002
 30
0.0
  0
VERTEX
  5
62D
  8
0
  6
CONTINUOUS
 62
    30
 10
0.630752983299999
 20
-59.08676232840003
 30
0.0
  0
VERTEX
  5
62E
  8
0
  6
CONTINUOUS
 62
    30
 10
0.9710173432000033
 20
-59.31501866470001
 30
0.0
  0
VERTEX
  5
62F
  8
0
  6
CONTINUOUS
 62
    30
 10
1.412709267100013
 20
-59.47523528980003
 30
0.0
  0
VERTEX
  5
630
  8
0
  6
CONTINUOUS
 62
    30
 10
1.916582496599972
 20
-59.55317629379999
 30
0.0
  0
VERTEX
  5
631
  8
0
  6
CONTINUOUS
 62
    30
 10
2.437865667300002
 20
-59.5419162865
 30
0.0
  0
VERTEX
  5
632
  8
0
  6
CONTINUOUS
 62
    30
 10
2.93024042159999
 20
-59.44245575560001
 30
0.0
  0
VERTEX
  5
633
  8
0
  6
CONTINUOUS
 62
    30
 10
3.34995721949997
 20
-59.263632196
 30
0.0
  0
SEQEND
  5
62A
  8
0
  6
CONTINUOUS
 62
    30
  0
ARC
  5
338
  8
0
  6
CONTINUOUS
 62
    30
 10
2.910467859599976
 20
-60.96492710910002
 30
0.0
 40
0.6976324351878322
 50
292.1218417823029
 51
3.363371850798501
  0
POLYLINE
  5
339
  8
0
  6
CONTINUOUS
 62
    30
 66
     1
 10
0.0
 20
0.0
 30
0.0
  0
VERTEX
  5
635
  8
0
  6
CONTINUOUS
 62
    30
 10
0.619040069499988
 20
-60.91824877070002
 30
0.0
  0
VERTEX
  5
636
  8
0
  6
CONTINUOUS
 62
    30
 10
0.6138016772000015
 20
-61.03468190450002
 30
0.0
  0
VERTEX
  5
637
  8
0
  6
CONTINUOUS
 62
    30
 10
0.7151337315999626
 20
-61.31367035430003
 30
0.0
  0
VERTEX
  5
638
  8
0
  6
CONTINUOUS
 62
    30
 10
0.9678942472999665
 20
-61.55854823639999
 30
0.0
  0
VERTEX
  5
639
  8
0
  6
CONTINUOUS
 62
    30
 10
1.344692773500015
 20
-61.74277926970001
 30
0.0
  0
VERTEX
  5
63A
  8
0
  6
CONTINUOUS
 62
    30
 10
1.804697307600009
 20
-61.84639916549998
 30
0.0
  0
VERTEX
  5
63B
  8
0
  6
CONTINUOUS
 62
    30
 10
2.298059261300011
 20
-61.85817905480002
 30
0.0
  0
VERTEX
  5
63C
  8
0
  6
CONTINUOUS
 62
    30
 10
2.771315172000016
 20
-61.7768424349
 30
0.0
  0
VERTEX
  5
63D
  8
0
  6
CONTINUOUS
 62
    30
 10
3.173180495199972
 20
-61.6112034322
 30
0.0
  0
SEQEND
  5
634
  8
0
  6
CONTINUOUS
 62
    30
  0
ARC
  5
344
  8
0
  6
CONTINUOUS
 62
    30
 10
2.89308481339998
 20
-61.35473082009997
 30
0.0
 40
0.721343856951929
 50
292.8485774553004
 51
355.8312933662985
  0
POLYLINE
  5
345
  8
0
  6
CONTINUOUS
 62
    30
 66
     1
 10
0.0
 20
0.0
 30
0.0
  0
VERTEX
  5
63F
  8
0
  6
CONTINUOUS
 62
    30
 10
0.6125203964999741
 20
-61.40716781589998
 30
0.0
  0
VERTEX
  5
640
  8
0
  6
CONTINUOUS
 62
    30
 10
0.6138016772000015
 20
-61.44295237739999
 30
0.0
  0
VERTEX
  5
641
  8
0
  6
CONTINUOUS
 62
    30
 10
0.7151337315999626
 20
-61.72194082710001
 30
0.0
  0
VERTEX
  5
642
  8
0
  6
CONTINUOUS
 62
    30
 10
0.9678942472999665
 20
-61.96681870930001
 30
0.0
  0
VERTEX
  5
643
  8
0
  6
CONTINUOUS
 62
    30
 10
1.344692773500015
 20
-62.15104974259998
 30
0.0
  0
VERTEX
  5
644
  8
0
  6
CONTINUOUS
 62
    30
 10
1.804697307600009
 20
-62.2546696384
 30
0.0
  0
VERTEX
  5
645
  8
0
  6
CONTINUOUS
 62
    30
 10
2.298059261300011
 20
-62.26644952769999
 30
0.0
  0
VERTEX
  5
646
  8
0
  6
CONTINUOUS
 62
    30
 10
2.771315172000016
 20
-62.18511290779998
 30
0.0
  0
VERTEX
  5
647
  8
0
  6
CONTINUOUS
 62
    30
 10
3.173180495199972
 20
-62.01947390499998
 30
0.0
  0
SEQEND
  5
63E
  8
0
  6
CONTINUOUS
 62
    30
  0
VIEWPORT
  5
350
 67
     1
  8
0
 10
128.5
 20
97.5
 30
0.0
 40
314.226
 41
222.18
 68
     1
 69
     1
1001
ACAD
1000
MVIEW
1002
{
1070
    16
1010
0.0
1020
0.0
1030
0.0
1020
0.0
1030
0.0
1010
0.0
1020
0.0
1030
1.0
1020
0.0
1030
1.0
1040
0.0
1040
222.18
1040
128.5
1040
97.5
1040
50.0
1040
0.0
1040
0.0
1070
     0
1070
   100
1070
     0
1070
     3
1070
     0
1070
     0
1070
     0
1070
     0
1040
0.0
1040
0.0
1040
0.0
1040
10.0
1040
10.0
1040
10.0
1040
10.0
1070
     0
1002
{
1002
}
1002
}
  0
ENDSEC
  0
EOF
