  0
SECTION
  2
HEADER
  9
$ACADVER
  1
AC1015
  9
$ACADMAINTVER
 70
               6
  9
$DWGCODEPAGE
  3
ANSI_932
  9
$INSBASE
 10
0.0
 20
0.0
 30
0.0
  9
$EXTMIN
 10
80.81414819103999
 20
6.8274019865200017
 30
0.0
  9
$EXTMAX
 10
200.81414461424001
 20
207.03776563661998
 30
0.0
  9
$LIMMIN
 10
0.0
 20
0.0
  9
$LIMMAX
 10
0.0
 20
0.0
  9
$ORTHOMODE
 70
               0
  9
$REGENMODE
 70
               1
  9
$FILLMODE
 70
               1
  9
$QTEXTMODE
 70
               0
  9
$MIRRTEXT
 70
               1
  9
$LTSCALE
 40
12.699999999999999
  9
$ATTMODE
 70
               1
  9
$TEXTSIZE
 40
0.2
  9
$TRACEWID
 40
1.0
  9
$TEXTSTYLE
  7
Standard
  9
$CLAYER
  8
0
  9
$CELTYPE
  6
Continuous
  9
$CECOLOR
 62
             256
  9
$CELTSCALE
 40
1.0
  9
$DISPSILH
 70
               0
  9
$DIMSCALE
 40
1.0
  9
$DIMASZ
 40
0.18
  9
$DIMEXO
 40
0.0625
  9
$DIMDLI
 40
0.38
  9
$DIMRND
 40
0.0
  9
$DIMDLE
 40
0.0
  9
$DIMEXE
 40
0.18
  9
$DIMTP
 40
0.0
  9
$DIMTM
 40
0.0
  9
$DIMTXT
 40
0.18
  9
$DIMCEN
 40
0.09
  9
$DIMTSZ
 40
0.0
  9
$DIMTOL
 70
               0
  9
$DIMLIM
 70
               0
  9
$DIMTIH
 70
               1
  9
$DIMTOH
 70
               1
  9
$DIMSE1
 70
               0
  9
$DIMSE2
 70
               0
  9
$DIMTAD
 70
               0
  9
$DIMZIN
 70
               0
  9
$DIMBLK
  1

  9
$DIMASO
 70
               1
  9
$DIMSHO
 70
               1
  9
$DIMPOST
  1

  9
$DIMAPOST
  1

  9
$DIMALT
 70
               0
  9
$DIMALTD
 70
               2
  9
$DIMALTF
 40
25.399999999999999
  9
$DIMLFAC
 40
1.0
  9
$DIMTOFL
 70
               0
  9
$DIMTVP
 40
0.0
  9
$DIMTIX
 70
               0
  9
$DIMSOXD
 70
               0
  9
$DIMSAH
 70
               0
  9
$DIMBLK1
  1

  9
$DIMBLK2
  1

  9
$DIMSTYLE
  2
Standard
  9
$DIMCLRD
 70
               0
  9
$DIMCLRE
 70
               0
  9
$DIMCLRT
 70
               0
  9
$DIMTFAC
 40
1.0
  9
$DIMGAP
 40
0.09
  9
$DIMJUST
 70
               0
  9
$DIMSD1
 70
               0
  9
$DIMSD2
 70
               0
  9
$DIMTOLJ
 70
               1
  9
$DIMTZIN
 70
               0
  9
$DIMALTZ
 70
               0
  9
$DIMALTTZ
 70
               0
  9
$DIMUPT
 70
               0
  9
$DIMDEC
 70
               4
  9
$DIMTDEC
 70
               4
  9
$DIMALTU
 70
               2
  9
$DIMALTTD
 70
               2
  9
$DIMTXSTY
  7
Standard
  9
$DIMAUNIT
 70
               0
  9
$DIMADEC
 70
               0
  9
$DIMALTRND
 40
0.0
  9
$DIMAZIN
 70
               0
  9
$DIMDSEP
 70
               0
  9
$DIMATFIT
 70
               3
  9
$DIMFRAC
 70
               0
  9
$DIMLDRBLK
  1

  9
$DIMLUNIT
 70
               2
  9
$DIMLWD
 70
               0
  9
$DIMLWE
 70
               0
  9
$DIMTMOVE
 70
               0
  9
$LUNITS
 70
               2
  9
$LUPREC
 70
               4
  9
$SKETCHINC
 40
0.1
  9
$FILLETRAD
 40
0.0
  9
$AUNITS
 70
               0
  9
$AUPREC
 70
               0
  9
$MENU
  1
acad
  9
$ELEVATION
 40
0.0
  9
$PELEVATION
 40
0.0
  9
$THICKNESS
 40
0.0
  9
$LIMCHECK
 70
               0
  9
$CHAMFERA
 40
0.0
  9
$CHAMFERB
 40
0.0
  9
$CHAMFERC
 40
0.0
  9
$CHAMFERD
 40
0.0
  9
$SKPOLY
 70
               0
  9
$TDCREATE
 40
2458278.665706019
  9
$TDUCREATE
 40
0.000000000
  9
$TDUPDATE
 40
2458278.665706019
  9
$TDUUPDATE
 40
0.000000000
  9
$TDINDWG
 40
0.0000000000
  9
$TDUSRTIMER
 40
0.0000000000
  9
$USRTIMER
 70
               1
  9
$ANGBASE
 50
0.0
  9
$ANGDIR
 70
               0
  9
$PDMODE
 70
               1
  9
$PDSIZE
 40
-2.0
  9
$PLINEWID
 40
0.0
  9
$SPLFRAME
 70
               0
  9
$SPLINETYPE
 70
               6
  9
$SPLINESEGS
 70
               8
  9
$HANDSEED
  5
5FD
  9
$SURFTAB1
 70
               6
  9
$SURFTAB2
 70
               6
  9
$SURFTYPE
 70
               6
  9
$SURFU
 70
               6
  9
$SURFV
 70
               6
  9
$UCSBASE
  2

  9
$UCSNAME
  2

  9
$UCSORG
 10
0.0
 20
0.0
 30
0.0
  9
$UCSXDIR
 10
1.0
 20
0.0
 30
0.0
  9
$UCSYDIR
 10
0.0
 20
1.0
 30
0.0
  9
$UCSORTHOREF
  2

  9
$UCSORTHOVIEW
 70
               0
  9
$UCSORGTOP
 10
0.0
 20
0.0
 30
0.0
  9
$UCSORGBOTTOM
 10
0.0
 20
0.0
 30
0.0
  9
$UCSORGLEFT
 10
0.0
 20
0.0
 30
0.0
  9
$UCSORGRIGHT
 10
0.0
 20
0.0
 30
0.0
  9
$UCSORGFRONT
 10
0.0
 20
0.0
 30
0.0
  9
$UCSORGBACK
 10
0.0
 20
0.0
 30
0.0
  9
$PUCSBASE
  2

  9
$PUCSNAME
  2

  9
$PUCSORG
 10
0.0
 20
0.0
 30
0.0
  9
$PUCSXDIR
 10
1.0
 20
0.0
 30
0.0
  9
$PUCSYDIR
 10
0.0
 20
1.0
 30
0.0
  9
$PUCSORTHOREF
  2

  9
$PUCSORTHOVIEW
 70
               0
  9
$PUCSORGTOP
 10
0.0
 20
0.0
 30
0.0
  9
$PUCSORGBOTTOM
 10
0.0
 20
0.0
 30
0.0
  9
$PUCSORGLEFT
 10
0.0
 20
0.0
 30
0.0
  9
$PUCSORGRIGHT
 10
0.0
 20
0.0
 30
0.0
  9
$PUCSORGFRONT
 10
0.0
 20
0.0
 30
0.0
  9
$PUCSORGBACK
 10
0.0
 20
0.0
 30
0.0
  9
$USERI1
 70
               0
  9
$USERI2
 70
               0
  9
$USERI3
 70
               0
  9
$USERI4
 70
               0
  9
$USERI5
 70
               0
  9
$USERR1
 40
0.0
  9
$USERR2
 40
0.0
  9
$USERR3
 40
0.0
  9
$USERR4
 40
0.0
  9
$USERR5
 40
0.0
  9
$WORLDVIEW
 70
               1
  9
$SHADEDGE
 70
               3
  9
$SHADEDIF
 70
              70
  9
$TILEMODE
 70
               1
  9
$MAXACTVP
 70
              16
  9
$PINSBASE
 10
0.0
 20
0.0
 30
0.0
  9
$PLIMCHECK
 70
               0
  9
$PEXTMIN
 10
1.0000000000000000E+20
 20
1.0000000000000000E+20
 30
1.0000000000000000E+20
  9
$PEXTMAX
 10
-1.0000000000000000E+20
 20
-1.0000000000000000E+20
 30
-1.0000000000000000E+20
  9
$PLIMMIN
 10
0.0
 20
0.0
  9
$PLIMMAX
 10
12.0
 20
9.0
  9
$UNITMODE
 70
               0
  9
$VISRETAIN
 70
               0
  9
$PLINEGEN
 70
               1
  9
$PSLTSCALE
 70
               0
  9
$TREEDEPTH
 70
            3020
  9
$CMLSTYLE
  2
Standard
  9
$CMLJUST
 70
               0
  9
$CMLSCALE
 40
1.0
  9
$PROXYGRAPHICS
 70
               0
  9
$MEASUREMENT
 70
               1
  9
$CELWEIGHT
370
               0
  9
$ENDCAPS
280
               0
  9
$JOINSTYLE
280
               0
  9
$LWDISPLAY
290
               1
  9
$INSUNITS
 70
               4
  9
$HYPERLINKBASE
  1

  9
$STYLESHEET
  1

  9
$XEDIT
290
               1
  9
$CEPSNTYPE
380
               0
  9
$PSTYLEMODE
290
               1
  9
$FINGERPRINTGUID
  2

  9
$VERSIONGUID
  2

  9
$EXTNAMES
290
               1
  9
$PSVPSCALE
 40
0.0
  0
ENDSEC
  0
SECTION
  2
CLASSES
  0
CLASS
  1
LWPOLYLINE
  2
AcDbPolyline
  3
AutoCAD 2000
 90
    32768
280
               0
281
               1
  0
CLASS
  1
IMAGE
  2
AcDbRasterImage
  3
ISM
 90
    32895
280
               0
281
               1
  0
CLASS
  1
OLE2FRAME
  2
AcDbOle2Frame
  3
AutoCAD 2000
 90
    32768
280
               0
281
               1
  0
CLASS
  1
HATCH
  2
AcDbHatch
  3
AutoCAD 2000
 90
    32768
280
               0
281
               1
  0
CLASS
  1
DICTIONARYVAR
  2
AcDbDictionaryVar
  3
AutoCAD 2000
 90
    32768
280
               0
281
               0
  0
CLASS
  1
RASTERVARIABLES
  2
AcDbRasterVariables
  3
ISM
 90
    32768
280
               0
281
               0
  0
CLASS
  1
IMAGEDEF
  2
AcDbRasterImageDef
  3
ISM
 90
    32768
280
               0
281
               0
  0
CLASS
  1
IMAGEDEF_REACTOR
  2
AcDbRasterImageDefReactor
  3
ISM
 90
    32769
280
               0
281
               0
  0
CLASS
  1
IDBUFFER
  2
AcDbIdBuffer
  3
AutoCAD 2000
 90
    32768
280
               0
281
               0
  0
CLASS
  1
SPATIAL_FILTER
  2
AcDbSpatialFilter
  3
AutoCAD 2000
 90
    32768
280
               0
281
               0
  0
CLASS
  1
XRECORD
  2
AcDbXrecord
  3
AutoCAD 2000
 90
    32768
280
               0
281
               0
  0
CLASS
  1
SORTENTSTABLE
  2
AcDbSortentsTable
  3
AutoCAD 2000
 90
    32768
280
               0
281
               0
  0
CLASS
  1
LAYER_INDEX
  2
AcDbLayerIndex
  3
AutoCAD 2000
 90
    32768
280
               0
281
               0
  0
CLASS
  1
SPATIAL_INDEX
  2
AcDbSpatialIndex
  3
AutoCAD 2000
 90
    32768
280
               0
281
               0
  0
CLASS
  1
OBJECT_PTR
  2
CAseDLPNTableRecord
  3
"ASE-LPNTableRecord"
 90
    32769
280
               0
281
               0
  0
CLASS
  1
LAYOUT
  2
AcDbLayout
  3
AutoCAD 2000
 90
        0
280
               0
281
               0
  0
CLASS
  1
PLOTSETTINGS
  2
AcDbPlotSettings
  3
AutoCAD 2000
 90
    32768
280
               0
281
               0
  0
CLASS
  1
ACDBDICTIONARYWDFLT
  2
AcDbDictionaryWithDefault
  3
AutoCAD 2000
 90
        0
280
               0
281
               0
  0
CLASS
  1
ACDBPLACEHOLDER
  2
AcDbPlaceHolder
  3
AutoCAD 2000
 90
        0
280
               0
281
               0
  0
CLASS
  1
VBA_PROJECT
  2
AcDbVbaProject
  3
acadvba
 90
    32768
280
               0
281
               0
  0
CLASS
  1
WIPEOUT
  2
AcDbWipeout
  3
WipeOut|AutoCAD Express Tool|expresstools@autodesk.com
 90
    32895
280
               0
281
               1
  0
CLASS
  1
WIPEOUTVARIABLES
  2
AcDbWipeoutVariables
  3
WipeOut|AutoCAD Express Tool|expresstools@autodesk.com
 90
        0
280
               0
281
               0
  0
CLASS
  1
RTEXT
  2
RText
  3
RText|AutoCAD Express Tool|expresstools@autodesk.com
 90
    32768
280
               0
281
               1
  0
CLASS
  1
ARCALIGNEDTEXT
  2
AcDbArcAlignedText
  3
ATEXT|AutoCAD Express Tool|expresstools@autodesk.com
 90
    32768
280
               0
281
               1
  0
ENDSEC
  0
SECTION
  2
TABLES
  0
TABLE
  2
VPORT
  5
7
100
AcDbSymbolTable
 70
               1
  0
VPORT
  5
15
100
AcDbSymbolTableRecord
100
AcDbViewportTableRecord
  2
*ACTIVE
 70
               0
 10
0.0
 20
0.0
 11
1.0
 21
1.0
 12
140.81414640264001
 22
106.93258381156998
 13
0.0
 23
0.0
 14
1.0
 24
1.0
 15
0.0
 25
0.0
 16
0.0
 26
0.0
 36
1.0
 17
0.0
 27
0.0
 37
0.0
 40
200.21036365009996
 41
0.688564
 42
50.0
 43
0.0
 44
0.0
 50
0.0
 51
0.0
 71
               0
 72
             100
 73
               1
 74
               1
 75
               0
 76
               0
 77
               0
 78
               0
281
               0
 65
               0
110
0.0
120
0.0
130
0.0
111
1.0
121
0.0
131
0.0
112
0.0
122
1.0
132
0.0
345
0
346
0
 79
               0
146
0.0
  0
ENDTAB
  0
TABLE
  2
LTYPE
  5
4
100
AcDbSymbolTable
 70
              13
  0
LTYPE
  5
11
100
AcDbSymbolTableRecord
100
AcDbLinetypeTableRecord
  2
ByBlock
 70
              64
  3

 72
              65
 73
               0
 40
0.0
  0
LTYPE
  5
12
100
AcDbSymbolTableRecord
100
AcDbLinetypeTableRecord
  2
ByLayer
 70
              64
  3

 72
              65
 73
               0
 40
0.0
  0
LTYPE
  5
13
100
AcDbSymbolTableRecord
100
AcDbLinetypeTableRecord
  2
Continuous
 70
              64
  3
Solid line
 72
              65
 73
               0
 40
0.0
  0
LTYPE
  5
24
100
AcDbSymbolTableRecord
100
AcDbLinetypeTableRecord
  2
STYLE_01
 70
               0
  3

 72
              65
 73
               2
 40
0.15
 49
0.1
 74
               0
 49
-0.05
 74
               0
  0
LTYPE
  5
25
100
AcDbSymbolTableRecord
100
AcDbLinetypeTableRecord
  2
STYLE_02
 70
               0
  3

 72
              65
 73
               6
 40
0.9999999999999999
 49
0.5
 74
               0
 49
-0.1
 74
               0
 49
0.1
 74
               0
 49
-0.1
 74
               0
 49
0.1
 74
               0
 49
-0.1
 74
               0
  0
LTYPE
  5
26
100
AcDbSymbolTableRecord
100
AcDbLinetypeTableRecord
  2
STYLE_03
 70
               0
  3

 72
              65
 73
               4
 40
0.7999999999999999
 49
0.5
 74
               0
 49
-0.1
 74
               0
 49
0.1
 74
               0
 49
-0.1
 74
               0
  0
LTYPE
  5
27
100
AcDbSymbolTableRecord
100
AcDbLinetypeTableRecord
  2
STYLE_04
 70
               0
  3

 72
              65
 73
               4
 40
1.5999999999999999
 49
1.0
 74
               0
 49
-0.2
 74
               0
 49
0.2
 74
               0
 49
-0.2
 74
               0
  0
LTYPE
  5
28
100
AcDbSymbolTableRecord
100
AcDbLinetypeTableRecord
  2
STYLE_05
 70
               0
  3

 72
              65
 73
               2
 40
0.05
 49
0.0002
 74
               0
 49
-0.0498
 74
               0
  0
LTYPE
  5
29
100
AcDbSymbolTableRecord
100
AcDbLinetypeTableRecord
  2
STYLE_06
 70
               0
  3

 72
              65
 73
               4
 40
0.416656494140625
 49
0.25
 74
               0
 49
-0.08331298828125
 74
               0
 49
0.02777099609375
 74
               0
 49
-0.055572509765625
 74
               0
  0
LTYPE
  5
2A
100
AcDbSymbolTableRecord
100
AcDbLinetypeTableRecord
  2
STYLE_07
 70
               0
  3

 72
              65
 73
               6
 40
0.75
 49
0.25
 74
               0
 49
-0.08331298828125
 74
               0
 49
0.25
 74
               0
 49
-0.083343505859375
 74
               0
 49
0.02777099609375
 74
               0
 49
-0.055572509765625
 74
               0
  0
LTYPE
  5
2B
100
AcDbSymbolTableRecord
100
AcDbLinetypeTableRecord
  2
STYLE_08
 70
               0
  3

 72
              65
 73
               6
 40
0.5
 49
0.25
 74
               0
 49
-0.08331298828125
 74
               0
 49
0.02777099609375
 74
               0
 49
-0.055572509765625
 74
               0
 49
0.02777099609375
 74
               0
 49
-0.055572509765625
 74
               0
  0
LTYPE
  5
2C
100
AcDbSymbolTableRecord
100
AcDbLinetypeTableRecord
  2
STYLE_09
 70
               0
  3

 72
              65
 73
               4
 40
2.0
 49
1.5
 74
               0
 49
-0.111114501953125
 74
               0
 49
0.27777099609375
 74
               0
 49
-0.111114501953125
 74
               0
  0
LTYPE
  5
2D
100
AcDbSymbolTableRecord
100
AcDbLinetypeTableRecord
  2
STYLE_10
 70
               0
  3

 72
              65
 73
               6
 40
2.375
 49
1.5
 74
               0
 49
-0.111114501953125
 74
               0
 49
0.27777099609375
 74
               0
 49
-0.111114501953125
 74
               0
 49
0.25
 74
               0
 49
-0.125
 74
               0
  0
ENDTAB
  0
TABLE
  2
LAYER
  5
2
100
AcDbSymbolTable
 70
               5
  0
LAYER
  5
14
100
AcDbSymbolTableRecord
100
AcDbLayerTableRecord
  2
0
 70
               0
 62
               7
  6
Continuous
290
               1
370
              15
390
1D
  0
LAYER
  5
2E
100
AcDbSymbolTableRecord
100
AcDbLayerTableRecord
  2
Defpoints
 70
               0
 62
               7
  6
Continuous
290
               0
370
              -3
390
1D
  0
LAYER
  5
2F
100
AcDbSymbolTableRecord
100
AcDbLayerTableRecord
  2
一般
 70
               0
 62
               7
  6
Continuous
290
               1
370
               5
390
1D
  0
LAYER
  5
30
100
AcDbSymbolTableRecord
100
AcDbLayerTableRecord
  2
寸法
 70
               0
 62
               7
  6
Continuous
290
               1
370
               5
390
1D
  0
LAYER
  5
31
100
AcDbSymbolTableRecord
100
AcDbLayerTableRecord
  2
FORMAT
 70
               0
 62
               7
  6
Continuous
290
               1
370
              15
390
1D
  0
ENDTAB
  0
TABLE
  2
STYLE
  5
3
100
AcDbSymbolTable
 70
               1
  0
STYLE
  5
17
100
AcDbSymbolTableRecord
100
AcDbTextStyleTableRecord
  2
Standard
 70
               0
 40
0.0
 41
1.0
 50
0.0
 71
               0
 42
0.0
  3
txt
  4
BIGFONT.SHX
  0
ENDTAB
  0
TABLE
  2
VIEW
  5
5
100
AcDbSymbolTable
 70
               0
  0
ENDTAB
  0
TABLE
  2
UCS
  5
6
100
AcDbSymbolTable
 70
               0
  0
ENDTAB
  0
TABLE
  2
APPID
  5
8
100
AcDbSymbolTable
 70
               1
  0
APPID
  5
16
100
AcDbSymbolTableRecord
100
AcDbRegAppTableRecord
  2
ACAD
 70
               0
  0
ENDTAB
  0
TABLE
  2
DIMSTYLE
  5
9
100
AcDbSymbolTable
 70
               1
100
AcDbDimStyleTable
 71
               0
  0
DIMSTYLE
105
18
100
AcDbSymbolTableRecord
100
AcDbDimStyleTableRecord
  2
Standard
 70
               0
  3

  4

 40
1.0
 41
0.18
 42
0.0625
 43
0.38
 44
0.18
 45
0.0
 46
0.0
 47
0.0
 48
0.0
 71
               0
 72
               0
 73
               1
 74
               1
 75
               0
 76
               0
 77
               0
 78
               0
 79
               0
140
0.18
141
0.09
142
0.0
143
25.399999999999999
144
1.0
145
0.0
146
1.0
147
0.09
148
0.0
170
               0
171
               2
172
               0
173
               0
174
               0
175
               0
176
               0
177
               0
178
               0
179
               0
271
               4
272
               4
273
               2
274
               2
275
               0
276
               0
277
               2
278
              46
279
               0
280
               0
281
               0
282
               0
283
               1
284
               0
285
               0
286
               0
288
               0
340
17
341
0
342
0
343
0
344
0
371
              -2
372
              -2
  0
ENDTAB
  0
TABLE
  2
BLOCK_RECORD
  5
1
100
AcDbSymbolTable
 70
               0
  0
BLOCK_RECORD
  5
A
100
AcDbSymbolTableRecord
100
AcDbBlockTableRecord
  2
*MODEL_SPACE
340
20
  0
BLOCK_RECORD
  5
B
100
AcDbSymbolTableRecord
100
AcDbBlockTableRecord
  2
*PAPER_SPACE
340
21
  0
ENDTAB
  0
ENDSEC
  0
SECTION
  2
BLOCKS
  0
BLOCK
  5
D
100
AcDbEntity
  8
0
100
AcDbBlockBegin
  2
*MODEL_SPACE
 70
               0
 10
0.0
 20
0.0
 30
0.0
  3
*MODEL_SPACE
  1

  0
ENDBLK
  5
E
100
AcDbEntity
  8
0
100
AcDbBlockEnd
  0
BLOCK
  5
F
100
AcDbEntity
 67
               1
  8
0
100
AcDbBlockBegin
  2
*PAPER_SPACE
 70
               0
 10
0.0
 20
0.0
 30
0.0
  3
*PAPER_SPACE
  1

  0
ENDBLK
  5
10
100
AcDbEntity
 67
               1
  8
0
100
AcDbBlockEnd
  0
ENDSEC
  0
SECTION
  2
ENTITIES
  0
LINE
  5
32
100
AcDbEntity
  8
0
370
              25
  6
Continuous
 62
               7
100
AcDbLine
 10
179.13336533428
 20
62.871845790219993
 30
0.0
 11
179.13336533428
 21
62.005820242619997
 31
0.0
  0
LINE
  5
33
100
AcDbEntity
  8
0
370
              25
  6
Continuous
 62
               7
100
AcDbLine
 10
185.63336695705999
 20
62.005819813359999
 30
0.0
 11
185.63336695705999
 21
62.871845358420003
 31
0.0
  0
LINE
  5
34
100
AcDbEntity
  8
0
370
              25
  6
Continuous
 62
               7
100
AcDbLine
 10
186.38336717156
 20
51.180502883899997
 30
0.0
 11
186.38336717156
 21
62.005819787959993
 31
0.0
  0
LINE
  5
35
100
AcDbEntity
  8
0
370
              25
  6
Continuous
 62
               7
100
AcDbLine
 10
178.38336511978
 20
62.005820270560001
 30
0.0
 11
178.38336511978
 21
51.180503366499998
 31
0.0
  0
LINE
  5
36
100
AcDbEntity
  8
0
370
              25
  6
Continuous
 62
               7
100
AcDbLine
 10
95.994925848219992
 20
86.871845996879998
 30
0.0
 11
95.994925848219992
 21
86.005820451819986
 31
0.0
  0
SPLINE
  5
37
100
AcDbEntity
  8
0
370
              25
  6
Continuous
 62
               7
100
AcDbSpline
210
0.0
220
0.0
230
1.0
 70
               8
 71
               2
 72
              13
 73
              10
 74
               0
 42
0.000001
 43
0.000001
 40
0.0
 40
0.0
 40
0.0
 40
1.0
 40
1.0
 40
2.0
 40
3.0
 40
4.0
 40
5.0
 40
5.0
 40
6.0
 40
6.0
 40
6.0
 10
166.4141454265432
 20
94.244628706697299
 30
0.0
 10
166.41409061257716
 20
94.248930511407636
 30
0.0
 10
166.41403579861111
 20
94.253232316117973
 30
0.0
 10
166.40873900485494
 20
95.091404130624369
 30
0.0
 10
166.32557542615203
 20
96.919556704565906
 30
0.0
 10
166.12237591289968
 20
98.302644609662408
 30
0.0
 10
165.97615038508769
 20
99.083974996965267
 30
0.0
 10
165.90424405889445
 20
99.44810914540723
 30
0.0
 10
165.90309096943116
 20
99.453988202871869
 30
0.0
 10
165.9019378799679
 20
99.459867260336495
 30
0.0
  0
SPLINE
  5
38
100
AcDbEntity
  8
0
370
              25
  6
Continuous
 62
               7
100
AcDbSpline
210
0.0
220
0.0
230
1.0
 70
               8
 71
               2
 72
              13
 73
              10
 74
               0
 42
0.000001
 43
0.000001
 40
0.0
 40
0.0
 40
0.0
 40
1.0
 40
1.0
 40
2.0
 40
3.0
 40
4.0
 40
5.0
 40
5.0
 40
6.0
 40
6.0
 40
6.0
 10
160.01486951367667
 20
97.17579346717622
 30
0.0
 10
160.01533871564078
 20
97.172259599234621
 30
0.0
 10
160.01580791760486
 20
97.168725731293037
 30
0.0
 10
160.07528897354885
 20
96.740906806691839
 30
0.0
 10
160.16682359232132
 20
95.874071625958521
 30
0.0
 10
160.19822584277668
 20
95.109682204925718
 30
0.0
 10
160.20987323412001
 20
94.534509833942238
 30
0.0
 10
160.21399875258317
 20
94.254283782042918
 30
0.0
 10
160.21407302892896
 20
94.249456955682803
 30
0.0
 10
160.21414730527476
 20
94.244630129322701
 30
0.0
  0
LINE
  5
39
100
AcDbEntity
  8
0
370
              25
  6
Continuous
 62
               7
100
AcDbLine
 10
160.21414730537998
 20
94.244630128599994
 30
0.0
 11
160.21414730537998
 21
93.80425275687999
 31
0.0
  0
LINE
  5
3A
100
AcDbEntity
  8
0
370
              25
  6
Continuous
 62
               7
100
AcDbLine
 10
166.41414542606
 20
93.80425133448
 30
0.0
 11
166.41414542606
 21
94.24462870619999
 31
0.0
  0
LINE
  5
3B
100
AcDbEntity
  8
0
370
              25
  6
Continuous
 62
               7
100
AcDbLine
 10
200.81414461424001
 20
36.817616651639995
 30
0.0
 11
200.81414461424001
 21
39.415693286820002
 31
0.0
  0
LINE
  5
3C
100
AcDbEntity
  8
0
370
              25
  6
Continuous
 62
               7
100
AcDbLine
 10
80.81414819103999
 20
39.415693030279996
 30
0.0
 11
80.81414819103999
 21
36.817616392559998
 31
0.0
  0
LINE
  5
3D
100
AcDbEntity
  8
0
370
              25
  6
Continuous
 62
               7
100
AcDbLine
 10
95.244925633720001
 20
75.180503575699987
 30
0.0
 11
95.244925633720001
 21
74.747490804439991
 31
0.0
  0
LINE
  5
3E
100
AcDbEntity
  8
0
370
              25
  6
Continuous
 62
               7
100
AcDbLine
 10
186.38336717156
 20
50.747490112640001
 30
0.0
 11
186.38336717156
 21
51.180502883899997
 31
0.0
  0
LINE
  5
3F
100
AcDbEntity
  8
0
370
              25
  6
Continuous
 62
               7
100
AcDbLine
 10
178.38336511978
 20
51.180503366499998
 30
0.0
 11
178.38336511978
 21
50.747490595239995
 31
0.0
  0
SPLINE
  5
40
100
AcDbEntity
  8
0
370
              25
  6
Continuous
 62
               7
100
AcDbSpline
210
0.0
220
0.0
230
1.0
 70
               8
 71
               2
 72
              16
 73
              13
 74
               0
 42
0.000001
 43
0.000001
 40
0.0
 40
0.0
 40
0.0
 40
1.0
 40
1.0
 40
2.0
 40
3.0
 40
4.0
 40
5.0
 40
6.0
 40
7.0
 40
8.0
 40
8.0
 40
9.0
 40
9.0
 40
9.0
 10
97.532275771427308
 20
71.749613768647805
 30
0.0
 10
97.534042653684352
 20
71.74916237550751
 30
0.0
 10
97.535809535941397
 20
71.748710982367214
 30
0.0
 10
97.757170730169676
 20
71.690089669071057
 30
0.0
 10
98.446597171446939
 20
71.54278895213082
 30
0.0
 10
99.526439962610468
 20
71.49780355597386
 30
0.0
 10
100.35574620110785
 20
71.596648754249131
 30
0.0
 10
101.03102080611772
 20
71.726604721103229
 30
0.0
 10
101.52738667194275
 20
71.942058171181486
 30
0.0
 10
101.77857826789759
 20
72.073360028577909
 30
0.0
 10
101.90196576163905
 20
72.141252734226626
 30
0.0
 10
101.90396039124909
 20
72.142343207652715
 30
0.0
 10
101.90595502085912
 20
72.143433681078804
 30
0.0
  0
SPLINE
  5
41
100
AcDbEntity
  8
0
370
              25
  6
Continuous
 62
               7
100
AcDbSpline
210
0.0
220
0.0
230
1.0
 70
               8
 71
               2
 72
              16
 73
              13
 74
               0
 42
0.000001
 43
0.000001
 40
0.0
 40
0.0
 40
0.0
 40
1.0
 40
1.0
 40
2.0
 40
3.0
 40
4.0
 40
5.0
 40
6.0
 40
7.0
 40
8.0
 40
8.0
 40
9.0
 40
9.0
 40
9.0
 10
95.414189981945796
 20
74.198150082873369
 30
0.0
 10
95.414059196141082
 20
74.197730819396497
 30
0.0
 10
95.413928410336368
 20
74.19731155591964
 30
0.0
 10
95.354610080563504
 20
74.029970181276624
 30
0.0
 10
95.362580619858591
 20
73.712290633340828
 30
0.0
 10
95.429674998374054
 20
73.46445658882061
 30
0.0
 10
95.646157276242448
 20
72.911476315299367
 30
0.0
 10
96.166902780818958
 20
72.408842543149206
 30
0.0
 10
96.771550114479879
 20
72.004287507381306
 30
0.0
 10
97.390572328459101
 20
71.792813337305944
 30
0.0
 10
97.530509480036656
 20
71.750159391293295
 30
0.0
 10
97.531392625731982
 20
71.74988657997055
 30
0.0
 10
97.532275771427308
 20
71.749613768647805
 30
0.0
  0
SPLINE
  5
42
100
AcDbEntity
  8
0
370
              25
  6
Continuous
 62
               7
100
AcDbSpline
210
0.0
220
0.0
230
1.0
 70
               8
 71
               2
 72
              24
 73
              21
 74
               0
 42
0.000001
 43
0.000001
 40
0.0
 40
0.0
 40
0.0
 40
1.0
 40
1.0
 40
2.0
 40
3.0
 40
4.0
 40
5.0
 40
6.0
 40
7.0
 40
8.0
 40
9.0
 40
10.0
 40
11.0
 40
12.0
 40
13.0
 40
14.0
 40
15.0
 40
16.0
 40
16.0
 40
17.0
 40
17.0
 40
17.0
 10
178.58245084191515
 20
50.188295402948668
 30
0.0
 10
178.58216000627857
 20
50.186457642860844
 30
0.0
 10
178.58186917064202
 20
50.184619882773013
 30
0.0
 10
178.56276849416835
 20
50.07062972053054
 30
0.0
 10
178.51489199425009
 20
49.666122984645092
 30
0.0
 10
178.67485811342468
 20
49.218228418672979
 30
0.0
 10
178.96195763502777
 20
48.72849879455201
 30
0.0
 10
179.5753918199147
 20
48.204230018925223
 30
0.0
 10
180.39314456639102
 20
47.814442539765288
 30
0.0
 10
181.40807910309695
 20
47.561242950384866
 30
0.0
 10
182.55141241965205
 20
47.485860877667513
 30
0.0
 10
183.68543988628022
 20
47.601188275363022
 30
0.0
 10
184.66963508532322
 20
47.890389074882549
 30
0.0
 10
185.47207813329823
 20
48.324216946906539
 30
0.0
 10
186.00453940843161
 20
48.874853716009156
 30
0.0
 10
186.23849242917549
 20
49.341673777173895
 30
0.0
 10
186.35565763115059
 20
49.800836441655477
 30
0.0
 10
186.27831627081332
 20
50.214688552302135
 30
0.0
 10
186.24581086558248
 20
50.348504767162353
 30
0.0
 10
186.24530278729353
 20
50.350663368328135
 30
0.0
 10
186.24479470900457
 20
50.352821969493917
 30
0.0
  0
LINE
  5
43
100
AcDbEntity
  8
0
370
              25
  6
Continuous
 62
               7
100
AcDbLine
 10
83.564145167540005
 20
178.41276522099997
 30
0.0
 11
83.564145167540005
 21
126.45124538250001
 31
0.0
  0
LINE
  5
44
100
AcDbEntity
  8
0
370
              25
  6
Continuous
 62
               7
100
AcDbLine
 10
198.06414763773998
 20
132.38351617731999
 30
0.0
 11
198.06414763773998
 21
178.41276481968001
 31
0.0
  0
LINE
  5
45
100
AcDbEntity
  8
0
370
              25
  6
Continuous
 62
               7
100
AcDbLine
 10
198.06414763773998
 20
126.45124497863999
 30
0.0
 11
198.06414763773998
 21
127.06534494169999
 31
0.0
  0
LINE
  5
46
100
AcDbEntity
  8
0
370
              25
  6
Continuous
 62
               7
100
AcDbLine
 10
110.32338312978
 20
107.27976445198
 30
0.0
 11
110.07338262393999
 21
107.06325766121999
 31
0.0
  0
LINE
  5
47
100
AcDbEntity
  8
0
370
              25
  6
Continuous
 62
               7
100
AcDbLine
 10
113.80490863305999
 20
102.75446865371998
 30
0.0
 11
114.05490913889999
 21
102.97097544447999
 31
0.0
  0
LINE
  5
48
100
AcDbEntity
  8
0
370
              25
  6
Continuous
 62
               7
100
AcDbLine
 10
198.06414677667999
 20
127.0653441162
 30
0.0
 11
198.56414715081999
 21
127.06534429907998
 31
0.0
  0
LINE
  5
49
100
AcDbEntity
  8
0
370
              25
  6
Continuous
 62
               7
100
AcDbLine
 10
198.56414564968
 20
132.76534487263999
 30
0.0
 11
198.06414527300001
 21
132.76534468721999
 31
0.0
  0
ARC
  5
4A
100
AcDbEntity
  8
0
370
              25
  6
Continuous
 62
               7
100
AcDbCircle
 10
195.42210094825998
 20
129.91534715633998
 30
0.0
 40
4.2420454545454689
100
AcDbArc
 50
14.681898537800125
 51
42.209677169899877
  0
ARC
  5
4B
100
AcDbEntity
  8
0
370
              25
  6
Continuous
 62
               7
100
AcDbCircle
 10
195.42210094825998
 20
129.91534715633998
 30
0.0
 40
4.242045454545444
100
AcDbArc
 50
317.79032283010002
 51
345.31810146220016
  0
LINE
  5
4C
100
AcDbEntity
  8
0
370
              25
  6
Continuous
 62
               7
100
AcDbLine
 10
181.08840451792
 20
103.97569661004
 30
0.0
 11
181.16155674143999
 21
104.09184145521999
 31
0.0
  0
LINE
  5
4D
100
AcDbEntity
  8
0
370
              25
  6
Continuous
 62
               7
100
AcDbLine
 10
176.13328249524
 20
103.64006744132
 30
0.0
 11
176.91141194227998
 21
103.41544081919999
 31
0.0
  0
LINE
  5
4E
100
AcDbEntity
  8
0
370
              25
  6
Continuous
 62
               7
100
AcDbLine
 10
174.79576335418
 20
102.25676323307998
 30
0.0
 11
175.66178728633997
 21
102.00676365687998
 31
0.0
  0
LINE
  5
4F
100
AcDbEntity
  8
0
370
              25
  6
Continuous
 62
               7
100
AcDbLine
 10
109.77285810434
 20
25.823467004219992
 30
0.0
 11
109.17244002907999
 21
25.303489697719996
 31
0.0
  0
LINE
  5
50
100
AcDbEntity
  8
0
370
              25
  6
Continuous
 62
               7
100
AcDbLine
 10
113.75501558069999
 20
20.011987265759998
 30
0.0
 11
114.3554336585
 21
20.5319645748
 31
0.0
  0
LINE
  5
51
100
AcDbEntity
  8
0
370
              25
  6
Continuous
 62
               7
100
AcDbLine
 10
133.11414622481999
 20
67.128505846859994
 30
0.0
 11
133.11414622481999
 21
65.396454756739999
 31
0.0
  0
LINE
  5
52
100
AcDbEntity
  8
0
370
              25
  6
Continuous
 62
               7
100
AcDbLine
 10
148.51414658299998
 20
65.396454627200001
 30
0.0
 11
148.51414658299998
 21
67.128505719860001
 31
0.0
  0
LINE
  5
53
100
AcDbEntity
  8
0
370
              25
  6
Continuous
 62
               7
100
AcDbLine
 10
172.06024855598
 20
50.380624173779992
 30
0.0
 11
178.38336468797999
 21
55.856603376739997
 31
0.0
  0
LINE
  5
54
100
AcDbEntity
  8
0
370
              25
  6
Continuous
 62
               7
100
AcDbLine
 10
133.31414662745999
 20
64.52467480611999
 30
0.0
 11
133.31414662745999
 21
64.097416356599993
 31
0.0
  0
LINE
  5
55
100
AcDbEntity
  8
0
370
              25
  6
Continuous
 62
               7
100
AcDbLine
 10
148.31414618036001
 20
64.097416389619994
 30
0.0
 11
148.31414618036001
 21
64.52467483913999
 31
0.0
  0
LINE
  5
56
100
AcDbEntity
  8
0
370
              25
  6
Continuous
 62
               7
100
AcDbLine
 10
168.20776520432
 20
92.378910245620006
 30
0.0
 11
167.16217075754
 21
93.493926743039992
 31
0.0
  0
LINE
  5
57
100
AcDbEntity
  8
0
370
              25
  6
Continuous
 62
               7
100
AcDbLine
 10
159.46612237521998
 20
93.493927017359994
 30
0.0
 11
158.68666543020001
 21
92.66271764599999
 31
0.0
  0
LINE
  5
58
100
AcDbEntity
  8
0
370
              25
  6
Continuous
 62
               7
100
AcDbLine
 10
167.08872849904
 20
93.157621621899992
 30
0.0
 11
166.89006576454
 21
94.012098053659997
 31
0.0
  0
LINE
  5
59
100
AcDbEntity
  8
0
370
              25
  6
Continuous
 62
               7
100
AcDbLine
 10
159.73822606011998
 20
94.012097357699986
 30
0.0
 11
159.53956441273999
 21
93.157620872599992
 31
0.0
  0
LINE
  5
5A
100
AcDbEntity
  8
0
370
              25
  6
Continuous
 62
               7
100
AcDbLine
 10
159.51414611458
 20
92.938227897619996
 30
0.0
 11
159.51414611458
 21
92.282584210179991
 31
0.0
  0
LINE
  5
5B
100
AcDbEntity
  8
0
370
              25
  6
Continuous
 62
               7
100
AcDbLine
 10
167.11414661685998
 20
92.282584639440003
 30
0.0
 11
167.11414661685998
 21
92.938228329419999
 31
0.0
  0
LINE
  5
5C
100
AcDbEntity
  8
0
370
              25
  6
Continuous
 62
               7
100
AcDbLine
 10
158.81414678813999
 20
83.246323550199989
 30
0.0
 11
158.81414678813999
 21
83.192813055239995
 31
0.0
  0
LINE
  5
5D
100
AcDbEntity
  8
0
370
              25
  6
Continuous
 62
               7
100
AcDbLine
 10
158.81414678813999
 20
83.679335920139991
 30
0.0
 11
158.81414678813999
 21
83.625825829039997
 31
0.0
  0
LINE
  5
5E
100
AcDbEntity
  8
0
370
              25
  6
Continuous
 62
               7
100
AcDbLine
 10
167.81414594329999
 20
83.84233127105999
 30
0.0
 11
167.81414594329999
 21
83.895841362159999
 31
0.0
  0
LINE
  5
5F
100
AcDbEntity
  8
0
370
              25
  6
Continuous
 62
               7
100
AcDbLine
 10
167.81414594329999
 20
83.409318497259989
 30
0.0
 11
167.81414594329999
 21
83.462828992219997
 31
0.0
  0
LINE
  5
60
100
AcDbEntity
  8
0
370
              25
  6
Continuous
 62
               7
100
AcDbLine
 10
167.81414594329999
 20
82.976305725999993
 30
0.0
 11
167.81414594329999
 21
83.029816218419995
 31
0.0
  0
LINE
  5
61
100
AcDbEntity
  8
0
370
              25
  6
Continuous
 62
               7
100
AcDbLine
 10
167.55992941845997
 20
83.727326233099987
 30
0.0
 11
167.7203770173
 21
83.840780174339997
 31
0.0
  0
LINE
  5
62
100
AcDbEntity
  8
0
370
              25
  6
Continuous
 62
               7
100
AcDbLine
 10
83.31414498174
 20
61.066327676600004
 30
0.0
 11
83.31414498174
 21
39.415693269040005
 31
0.0
  0
LINE
  5
63
100
AcDbEntity
  8
0
370
              25
  6
Continuous
 62
               7
100
AcDbLine
 10
198.31414782607999
 20
39.415693048059993
 30
0.0
 11
198.31414782607999
 21
61.066327458159996
 31
0.0
  0
LINE
  5
64
100
AcDbEntity
  8
0
370
              25
  6
Continuous
 62
               7
100
AcDbLine
 10
184.85110522973997
 20
61.64090568924
 30
0.0
 11
185.45035156997997
 21
61.468208495900001
 31
0.0
  0
LINE
  5
65
100
AcDbEntity
  8
0
370
              25
  6
Continuous
 62
               7
100
AcDbLine
 10
185.45035156997997
 20
61.468208495900001
 30
0.0
 11
185.63336695705999
 21
62.005819813359999
 31
0.0
  0
POLYLINE
  5
66
100
AcDbEntity
  8
0
370
              25
  6
Continuous
 62
               7
100
AcDb2dPolyline
 66
               1
 10
0.0
 20
0.0
 30
0.0
 75
               5
  0
VERTEX
  5
67
100
AcDbEntity
  8
0
370
              25
  6
Continuous
 62
               7
100
AcDbVertex
100
AcDb2dVertex
 10
179.13336533428
 20
62.005820242619997
 30
0.0
  0
VERTEX
  5
68
100
AcDbEntity
  8
0
370
              25
  6
Continuous
 62
               7
100
AcDbVertex
100
AcDb2dVertex
 10
179.13349859284
 20
61.991053114419998
 30
0.0
  0
VERTEX
  5
69
100
AcDbEntity
  8
0
370
              25
  6
Continuous
 62
               7
100
AcDbVertex
100
AcDb2dVertex
 10
179.336428474
 20
61.44042726875999
 30
0.0
  0
VERTEX
  5
6A
100
AcDbEntity
  8
0
370
              25
  6
Continuous
 62
               7
100
AcDbVertex
100
AcDb2dVertex
 10
179.90107787047998
 20
60.956922330259999
 30
0.0
  0
VERTEX
  5
6B
100
AcDbEntity
  8
0
370
              25
  6
Continuous
 62
               7
100
AcDbVertex
100
AcDb2dVertex
 10
180.76041198619998
 20
60.597938664179999
 30
0.0
  0
VERTEX
  5
6C
100
AcDbEntity
  8
0
370
              25
  6
Continuous
 62
               7
100
AcDbVertex
100
AcDb2dVertex
 10
181.81241713136001
 20
60.406092398139997
 30
0.0
  0
VERTEX
  5
6D
100
AcDbEntity
  8
0
370
              25
  6
Continuous
 62
               7
100
AcDbVertex
100
AcDb2dVertex
 10
182.93220362177999
 20
60.404158673279994
 30
0.0
  0
VERTEX
  5
6E
100
AcDbEntity
  8
0
370
              25
  6
Continuous
 62
               7
100
AcDbVertex
100
AcDb2dVertex
 10
183.98683383153997
 20
60.592367471359999
 30
0.0
  0
VERTEX
  5
6F
100
AcDbEntity
  8
0
370
              25
  6
Continuous
 62
               7
100
AcDbVertex
100
AcDb2dVertex
 10
184.85110667499998
 20
60.948375476640003
 30
0.0
  0
SEQEND
  5
70
100
AcDbEntity
  8
0
370
              25
  6
Continuous
 62
               7
  0
LINE
  5
71
100
AcDbEntity
  8
0
370
              25
  6
Continuous
 62
               7
100
AcDbLine
 10
185.56040726553999
 20
63.214232908339994
 30
0.0
 11
185.56957691699998
 21
63.214958172319996
 31
0.0
  0
ARC
  5
72
100
AcDbEntity
  8
0
370
              25
  6
Continuous
 62
               7
100
AcDbCircle
 10
184.14705623905999
 20
61.037293055979994
 30
0.0
 40
2.6011133090476903
100
AcDbArc
 50
48.054163219799882
 51
56.846142806199836
  0
POLYLINE
  5
73
100
AcDbEntity
  8
0
370
              25
  6
Continuous
 62
               7
100
AcDb2dPolyline
 66
               1
 10
0.0
 20
0.0
 30
0.0
 75
               5
  0
VERTEX
  5
74
100
AcDbEntity
  8
0
370
              25
  6
Continuous
 62
               7
100
AcDbVertex
100
AcDb2dVertex
 10
185.88571266521998
 20
62.971941414259994
 30
0.0
  0
VERTEX
  5
75
100
AcDbEntity
  8
0
370
              25
  6
Continuous
 62
               7
100
AcDbVertex
100
AcDb2dVertex
 10
185.84118075275998
 20
62.927016573959996
 30
0.0
  0
VERTEX
  5
76
100
AcDbEntity
  8
0
370
              25
  6
Continuous
 62
               7
100
AcDbVertex
100
AcDb2dVertex
 10
185.82039518092
 20
62.877965445239994
 30
0.0
  0
VERTEX
  5
77
100
AcDbEntity
  8
0
370
              25
  6
Continuous
 62
               7
100
AcDbVertex
100
AcDb2dVertex
 10
185.8246619542
 20
62.827871113120004
 30
0.0
  0
VERTEX
  5
78
100
AcDbEntity
  8
0
370
              25
  6
Continuous
 62
               7
100
AcDbVertex
100
AcDb2dVertex
 10
185.85371430402
 20
62.779881386899994
 30
0.0
  0
VERTEX
  5
79
100
AcDbEntity
  8
0
370
              25
  6
Continuous
 62
               7
100
AcDbVertex
100
AcDb2dVertex
 10
185.90572377581998
 20
62.737013512259999
 30
0.0
  0
VERTEX
  5
7A
100
AcDbEntity
  8
0
370
              25
  6
Continuous
 62
               7
100
AcDbVertex
100
AcDb2dVertex
 10
185.97742810028001
 20
62.701959431999995
 30
0.0
  0
VERTEX
  5
7B
100
AcDbEntity
  8
0
370
              25
  6
Continuous
 62
               7
100
AcDbVertex
100
AcDb2dVertex
 10
186.06431147236
 20
62.67692527581999
 30
0.0
  0
VERTEX
  5
7C
100
AcDbEntity
  8
0
370
              25
  6
Continuous
 62
               7
100
AcDbVertex
100
AcDb2dVertex
 10
186.16092229259999
 20
62.663481830519991
 30
0.0
  0
SEQEND
  5
7D
100
AcDbEntity
  8
0
370
              25
  6
Continuous
 62
               7
  0
ARC
  5
7E
100
AcDbEntity
  8
0
370
              25
  6
Continuous
 62
               7
100
AcDbCircle
 10
185.080859581
 20
61.902573499659994
 30
0.0
 40
1.3211801355532116
100
AcDbArc
 50
21.347438775200096
 51
35.164842765800351
  0
POLYLINE
  5
7F
100
AcDbEntity
  8
0
370
              25
  6
Continuous
 62
               7
100
AcDb2dPolyline
 66
               1
 10
0.0
 20
0.0
 30
0.0
 75
               5
  0
VERTEX
  5
80
100
AcDbEntity
  8
0
370
              25
  6
Continuous
 62
               7
100
AcDbVertex
100
AcDb2dVertex
 10
186.31139374425999
 20
62.383512809559996
 30
0.0
  0
VERTEX
  5
81
100
AcDbEntity
  8
0
370
              25
  6
Continuous
 62
               7
100
AcDbVertex
100
AcDb2dVertex
 10
186.24127366605998
 20
62.34766825589999
 30
0.0
  0
VERTEX
  5
82
100
AcDbEntity
  8
0
370
              25
  6
Continuous
 62
               7
100
AcDbVertex
100
AcDb2dVertex
 10
186.19118866589997
 20
62.30423004203999
 30
0.0
  0
VERTEX
  5
83
100
AcDbEntity
  8
0
370
              25
  6
Continuous
 62
               7
100
AcDbVertex
100
AcDb2dVertex
 10
186.16428664451999
 20
62.255928060919992
 30
0.0
  0
VERTEX
  5
84
100
AcDbEntity
  8
0
370
              25
  6
Continuous
 62
               7
100
AcDbVertex
100
AcDb2dVertex
 10
186.16225809383999
 20
62.20579838978
 30
0.0
  0
VERTEX
  5
85
100
AcDbEntity
  8
0
370
              25
  6
Continuous
 62
               7
100
AcDbVertex
100
AcDb2dVertex
 10
186.18523076061999
 20
62.156991497300005
 30
0.0
  0
VERTEX
  5
86
100
AcDbEntity
  8
0
370
              25
  6
Continuous
 62
               7
100
AcDbVertex
100
AcDb2dVertex
 10
186.23175773131999
 20
62.112575660300003
 30
0.0
  0
VERTEX
  5
87
100
AcDbEntity
  8
0
370
              25
  6
Continuous
 62
               7
100
AcDbVertex
100
AcDb2dVertex
 10
186.29891874507999
 20
62.075341571699994
 30
0.0
  0
VERTEX
  5
88
100
AcDbEntity
  8
0
370
              25
  6
Continuous
 62
               7
100
AcDbVertex
100
AcDb2dVertex
 10
186.38249087663999
 20
62.047629785619989
 30
0.0
  0
SEQEND
  5
89
100
AcDbEntity
  8
0
370
              25
  6
Continuous
 62
               7
  0
ARC
  5
8A
100
AcDbEntity
  8
0
370
              25
  6
Continuous
 62
               7
100
AcDbCircle
 10
185.36691204673997
 20
62.006290937639996
 30
0.0
 40
1.0164198265976241
100
AcDbArc
 50
345.86735867840008
 51
2.3309216881998509
  0
POLYLINE
  5
8B
100
AcDbEntity
  8
0
370
              25
  6
Continuous
 62
               7
100
AcDb2dPolyline
 66
               1
 10
0.0
 20
0.0
 30
0.0
 75
               5
  0
VERTEX
  5
8C
100
AcDbEntity
  8
0
370
              25
  6
Continuous
 62
               7
100
AcDbVertex
100
AcDb2dVertex
 10
186.35256796467999
 20
61.758114243239994
 30
0.0
  0
VERTEX
  5
8D
100
AcDbEntity
  8
0
370
              25
  6
Continuous
 62
               7
100
AcDbVertex
100
AcDb2dVertex
 10
186.26372751751998
 20
61.73485759175999
 30
0.0
  0
VERTEX
  5
8E
100
AcDbEntity
  8
0
370
              25
  6
Continuous
 62
               7
100
AcDbVertex
100
AcDb2dVertex
 10
186.18924781633999
 20
61.701283635540001
 30
0.0
  0
VERTEX
  5
8F
100
AcDbEntity
  8
0
370
              25
  6
Continuous
 62
               7
100
AcDbVertex
100
AcDb2dVertex
 10
186.13381051039997
 20
61.659502207799996
 30
0.0
  0
VERTEX
  5
90
100
AcDbEntity
  8
0
370
              25
  6
Continuous
 62
               7
100
AcDbVertex
100
AcDb2dVertex
 10
186.10089966181999
 20
61.612139432319999
 30
0.0
  0
VERTEX
  5
91
100
AcDbEntity
  8
0
370
              25
  6
Continuous
 62
               7
100
AcDbVertex
100
AcDb2dVertex
 10
186.09258435967999
 20
61.562171836039994
 30
0.0
  0
VERTEX
  5
92
100
AcDbEntity
  8
0
370
              25
  6
Continuous
 62
               7
100
AcDbVertex
100
AcDb2dVertex
 10
186.10938243377998
 20
61.512741259259997
 30
0.0
  0
VERTEX
  5
93
100
AcDbEntity
  8
0
370
              25
  6
Continuous
 62
               7
100
AcDbVertex
100
AcDb2dVertex
 10
186.15024582932
 20
61.466952199199994
 30
0.0
  0
VERTEX
  5
94
100
AcDbEntity
  8
0
370
              25
  6
Continuous
 62
               7
100
AcDbVertex
100
AcDb2dVertex
 10
186.21260171172
 20
61.427683883019995
 30
0.0
  0
SEQEND
  5
95
100
AcDbEntity
  8
0
370
              25
  6
Continuous
 62
               7
  0
ARC
  5
96
100
AcDbEntity
  8
0
370
              25
  6
Continuous
 62
               7
100
AcDbCircle
 10
184.82219352479999
 20
62.278026208239993
 30
0.0
 40
1.6298211542346928
100
AcDbArc
 50
316.54024336299995
 51
328.55098346629978
  0
POLYLINE
  5
97
100
AcDbEntity
  8
0
370
              25
  6
Continuous
 62
               7
100
AcDb2dPolyline
 66
               1
 10
0.0
 20
0.0
 30
0.0
 75
               5
  0
VERTEX
  5
98
100
AcDbEntity
  8
0
370
              25
  6
Continuous
 62
               7
100
AcDbVertex
100
AcDb2dVertex
 10
186.00521172263998
 20
61.15696200891999
 30
0.0
  0
VERTEX
  5
99
100
AcDbEntity
  8
0
370
              25
  6
Continuous
 62
               7
100
AcDbVertex
100
AcDb2dVertex
 10
185.90634550939998
 20
61.148570346759996
 30
0.0
  0
VERTEX
  5
9A
100
AcDbEntity
  8
0
370
              25
  6
Continuous
 62
               7
100
AcDbVertex
100
AcDb2dVertex
 10
185.81476279441998
 20
61.128146780799995
 30
0.0
  0
VERTEX
  5
9B
100
AcDbEntity
  8
0
370
              25
  6
Continuous
 62
               7
100
AcDbVertex
100
AcDb2dVertex
 10
185.73621465078
 20
61.096976388479995
 30
0.0
  0
VERTEX
  5
9C
100
AcDbEntity
  8
0
370
              25
  6
Continuous
 62
               7
100
AcDbVertex
100
AcDb2dVertex
 10
185.67564177471999
 20
61.057017088159995
 30
0.0
  0
VERTEX
  5
9D
100
AcDbEntity
  8
0
370
              25
  6
Continuous
 62
               7
100
AcDbVertex
100
AcDb2dVertex
 10
185.6368516364
 20
61.01078020832
 30
0.0
  0
VERTEX
  5
9E
100
AcDbEntity
  8
0
370
              25
  6
Continuous
 62
               7
100
AcDbVertex
100
AcDb2dVertex
 10
185.62227998659998
 20
60.961172382720001
 30
0.0
  0
VERTEX
  5
9F
100
AcDbEntity
  8
0
370
              25
  6
Continuous
 62
               7
100
AcDbVertex
100
AcDb2dVertex
 10
185.63284280265998
 20
60.9113114512
 30
0.0
  0
VERTEX
  5
A0
100
AcDbEntity
  8
0
370
              25
  6
Continuous
 62
               7
100
AcDbVertex
100
AcDb2dVertex
 10
185.66787795229999
 20
60.86433065616
 30
0.0
  0
SEQEND
  5
A1
100
AcDbEntity
  8
0
370
              25
  6
Continuous
 62
               7
  0
ARC
  5
A2
100
AcDbEntity
  8
0
370
              25
  6
Continuous
 62
               7
100
AcDbCircle
 10
183.79057974601997
 20
63.492750972079996
 30
0.0
 40
3.22999100995865
100
AcDbArc
 50
297.92676983009983
 51
305.53558654009987
  0
POLYLINE
  5
A3
100
AcDbEntity
  8
0
370
              25
  6
Continuous
 62
               7
100
AcDb2dPolyline
 66
               1
 10
0.0
 20
0.0
 30
0.0
 75
               5
  0
VERTEX
  5
A4
100
AcDbEntity
  8
0
370
              25
  6
Continuous
 62
               7
100
AcDbVertex
100
AcDb2dVertex
 10
185.30332238474
 20
60.638902407499998
 30
0.0
  0
VERTEX
  5
A5
100
AcDbEntity
  8
0
370
              25
  6
Continuous
 62
               7
100
AcDbVertex
100
AcDb2dVertex
 10
185.20411033526
 20
60.646196467079996
 30
0.0
  0
VERTEX
  5
A6
100
AcDbEntity
  8
0
370
              25
  6
Continuous
 62
               7
100
AcDbVertex
100
AcDb2dVertex
 10
185.10438486541997
 20
60.64092379537999
 30
0.0
  0
VERTEX
  5
A7
100
AcDbEntity
  8
0
370
              25
  6
Continuous
 62
               7
100
AcDbVertex
100
AcDb2dVertex
 10
185.01041989460001
 20
60.623414119959996
 30
0.0
  0
VERTEX
  5
A8
100
AcDbEntity
  8
0
370
              25
  6
Continuous
 62
               7
100
AcDbVertex
100
AcDb2dVertex
 10
184.92811619078
 20
60.594769244560005
 30
0.0
  0
VERTEX
  5
A9
100
AcDbEntity
  8
0
370
              25
  6
Continuous
 62
               7
100
AcDbVertex
100
AcDb2dVertex
 10
184.86264579848
 20
60.556789805659996
 30
0.0
  0
VERTEX
  5
AA
100
AcDbEntity
  8
0
370
              25
  6
Continuous
 62
               7
100
AcDbVertex
100
AcDb2dVertex
 10
184.81812731245998
 20
60.511861693839997
 30
0.0
  0
VERTEX
  5
AB
100
AcDbEntity
  8
0
370
              25
  6
Continuous
 62
               7
100
AcDbVertex
100
AcDb2dVertex
 10
184.7973572651
 20
60.462809109699997
 30
0.0
  0
VERTEX
  5
AC
100
AcDbEntity
  8
0
370
              25
  6
Continuous
 62
               7
100
AcDbVertex
100
AcDb2dVertex
 10
184.80164136626001
 20
60.412714884259991
 30
0.0
  0
SEQEND
  5
AD
100
AcDbEntity
  8
0
370
              25
  6
Continuous
 62
               7
  0
ARC
  5
AE
100
AcDbEntity
  8
0
370
              25
  6
Continuous
 62
               7
100
AcDbCircle
 10
182.86770256459999
 20
65.532974166199992
 30
0.0
 40
5.4733147566435685
100
AcDbArc
 50
285.33955887029987
 51
290.691716074
  0
ARC
  5
AF
100
AcDbEntity
  8
0
370
              25
  6
Continuous
 62
               7
100
AcDbCircle
 10
184.09916797059998
 20
59.773298753900001
 30
0.0
 40
0.5277702803032518
100
AcDbArc
 50
65.788771883001331
 51
139.35934644280073
  0
ARC
  5
B0
100
AcDbEntity
  8
0
370
              25
  6
Continuous
 62
               7
100
AcDbCircle
 10
182.43493059803998
 20
67.401257290179998
 30
0.0
 40
7.3930290424659253
100
AcDbArc
 50
275.46287666180001
 51
279.84244530860008
  0
ARC
  5
B1
100
AcDbEntity
  8
0
370
              25
  6
Continuous
 62
               7
100
AcDbCircle
 10
182.83113035427999
 20
59.490003585159997
 30
0.0
 40
0.6317580797686717
100
AcDbArc
 50
60.860950347100122
 51
125.19760367789925
  0
ARC
  5
B2
100
AcDbEntity
  8
0
370
              25
  6
Continuous
 62
               7
100
AcDbCircle
 10
182.38313840545999
 20
67.973087210779994
 30
0.0
 40
7.9672717236508488
100
AcDbArc
 50
266.4366401632999
 51
270.60299334609994
  0
ARC
  5
B3
100
AcDbEntity
  8
0
370
              25
  6
Continuous
 62
               7
100
AcDbCircle
 10
181.50370522148
 20
59.54800480774
 30
0.0
 40
0.6095726731039964
100
AcDbArc
 50
50.923448811499242
 51
116.98649045040055
  0
ARC
  5
B4
100
AcDbEntity
  8
0
370
              25
  6
Continuous
 62
               7
100
AcDbCircle
 10
182.24731771952
 20
66.883763793799986
 30
0.0
 40
6.8687507402062868
100
AcDbArc
 50
256.85839164219999
 51
261.45817588039989
  0
POLYLINE
  5
B5
100
AcDbEntity
  8
0
370
              25
  6
Continuous
 62
               7
100
AcDb2dPolyline
 66
               1
 10
0.0
 20
0.0
 30
0.0
 75
               5
  0
VERTEX
  5
B6
100
AcDbEntity
  8
0
370
              25
  6
Continuous
 62
               7
100
AcDbVertex
100
AcDb2dVertex
 10
180.68564850097999
 20
60.194897971659998
 30
0.0
  0
VERTEX
  5
B7
100
AcDbEntity
  8
0
370
              25
  6
Continuous
 62
               7
100
AcDbVertex
100
AcDb2dVertex
 10
180.66886551956
 20
60.244330443279992
 30
0.0
  0
VERTEX
  5
B8
100
AcDbEntity
  8
0
370
              25
  6
Continuous
 62
               7
100
AcDbVertex
100
AcDb2dVertex
 10
180.62801855274
 20
60.29012255896
 30
0.0
  0
VERTEX
  5
B9
100
AcDbEntity
  8
0
370
              25
  6
Continuous
 62
               7
100
AcDbVertex
100
AcDb2dVertex
 10
180.56567683591999
 20
60.32939569098
 30
0.0
  0
VERTEX
  5
BA
100
AcDbEntity
  8
0
370
              25
  6
Continuous
 62
               7
100
AcDbVertex
100
AcDb2dVertex
 10
180.48576053398
 20
60.35968119556
 30
0.0
  0
VERTEX
  5
BB
100
AcDbEntity
  8
0
370
              25
  6
Continuous
 62
               7
100
AcDbVertex
100
AcDb2dVertex
 10
180.39328695971997
 20
60.37907688448
 30
0.0
  0
VERTEX
  5
BC
100
AcDbEntity
  8
0
370
              25
  6
Continuous
 62
               7
100
AcDbVertex
100
AcDb2dVertex
 10
180.29407033824
 20
60.386363258019998
 30
0.0
  0
VERTEX
  5
BD
100
AcDbEntity
  8
0
370
              25
  6
Continuous
 62
               7
100
AcDbVertex
100
AcDb2dVertex
 10
180.19434788083998
 20
60.381082021440001
 30
0.0
  0
VERTEX
  5
BE
100
AcDbEntity
  8
0
370
              25
  6
Continuous
 62
               7
100
AcDbVertex
100
AcDb2dVertex
 10
180.10038729151998
 20
60.363564962239991
 30
0.0
  0
SEQEND
  5
BF
100
AcDbEntity
  8
0
370
              25
  6
Continuous
 62
               7
  0
ARC
  5
C0
100
AcDbEntity
  8
0
370
              25
  6
Continuous
 62
               7
100
AcDbCircle
 10
181.64001976978
 20
64.820525768899998
 30
0.0
 40
4.7153968868418463
100
AcDbArc
 50
245.03115532370001
 51
250.9428110355
  0
POLYLINE
  5
C1
100
AcDbEntity
  8
0
370
              25
  6
Continuous
 62
               7
100
AcDb2dPolyline
 66
               1
 10
0.0
 20
0.0
 30
0.0
 75
               5
  0
VERTEX
  5
C2
100
AcDbEntity
  8
0
370
              25
  6
Continuous
 62
               7
100
AcDbVertex
100
AcDb2dVertex
 10
179.64953105581998
 20
60.545841864639996
 30
0.0
  0
VERTEX
  5
C3
100
AcDbEntity
  8
0
370
              25
  6
Continuous
 62
               7
100
AcDbVertex
100
AcDb2dVertex
 10
179.66411863142
 20
60.595448585339994
 30
0.0
  0
VERTEX
  5
C4
100
AcDbEntity
  8
0
370
              25
  6
Continuous
 62
               7
100
AcDbVertex
100
AcDb2dVertex
 10
179.65357371982
 20
60.645310118840001
 30
0.0
  0
VERTEX
  5
C5
100
AcDbEntity
  8
0
370
              25
  6
Continuous
 62
               7
100
AcDbVertex
100
AcDb2dVertex
 10
179.61855459504
 20
60.692293616439997
 30
0.0
  0
VERTEX
  5
C6
100
AcDbEntity
  8
0
370
              25
  6
Continuous
 62
               7
100
AcDbVertex
100
AcDb2dVertex
 10
179.56126467151998
 20
60.733445787119997
 30
0.0
  0
VERTEX
  5
C7
100
AcDbEntity
  8
0
370
              25
  6
Continuous
 62
               7
100
AcDbVertex
100
AcDb2dVertex
 10
179.48530331975999
 20
60.766180352079992
 30
0.0
  0
VERTEX
  5
C8
100
AcDbEntity
  8
0
370
              25
  6
Continuous
 62
               7
100
AcDbVertex
100
AcDb2dVertex
 10
179.39544757109999
 20
60.788439189960002
 30
0.0
  0
VERTEX
  5
C9
100
AcDbEntity
  8
0
370
              25
  6
Continuous
 62
               7
100
AcDbVertex
100
AcDb2dVertex
 10
179.29734359407999
 20
60.798823733580001
 30
0.0
  0
VERTEX
  5
CA
100
AcDbEntity
  8
0
370
              25
  6
Continuous
 62
               7
100
AcDbVertex
100
AcDb2dVertex
 10
179.19715537433999
 20
60.79668188366
 30
0.0
  0
SEQEND
  5
CB
100
AcDbEntity
  8
0
370
              25
  6
Continuous
 62
               7
  0
ARC
  5
CC
100
AcDbEntity
  8
0
370
              25
  6
Continuous
 62
               7
100
AcDbCircle
 10
180.61973486852
 20
62.974439179139999
 30
0.0
 40
2.6012226443635802
100
AcDbArc
 50
228.05449026020023
 51
236.84616861749984
  0
POLYLINE
  5
CD
100
AcDbEntity
  8
0
370
              25
  6
Continuous
 62
               7
100
AcDb2dPolyline
 66
               1
 10
0.0
 20
0.0
 30
0.0
 75
               5
  0
VERTEX
  5
CE
100
AcDbEntity
  8
0
370
              25
  6
Continuous
 62
               7
100
AcDbVertex
100
AcDb2dVertex
 10
178.88101640031999
 20
61.039699573900002
 30
0.0
  0
VERTEX
  5
CF
100
AcDbEntity
  8
0
370
              25
  6
Continuous
 62
               7
100
AcDbVertex
100
AcDb2dVertex
 10
178.92555154111997
 20
61.08462348202
 30
0.0
  0
VERTEX
  5
D0
100
AcDbEntity
  8
0
370
              25
  6
Continuous
 62
               7
100
AcDbVertex
100
AcDb2dVertex
 10
178.94633711295998
 20
61.133674610740002
 30
0.0
  0
VERTEX
  5
D1
100
AcDbEntity
  8
0
370
              25
  6
Continuous
 62
               7
100
AcDbVertex
100
AcDb2dVertex
 10
178.94207033967999
 20
61.183768942859992
 30
0.0
  0
VERTEX
  5
D2
100
AcDbEntity
  8
0
370
              25
  6
Continuous
 62
               7
100
AcDbVertex
100
AcDb2dVertex
 10
178.91301798731999
 20
61.231758669080001
 30
0.0
  0
VERTEX
  5
D3
100
AcDbEntity
  8
0
370
              25
  6
Continuous
 62
               7
100
AcDbVertex
100
AcDb2dVertex
 10
178.86100528972
 20
61.274627478439989
 30
0.0
  0
VERTEX
  5
D4
100
AcDbEntity
  8
0
370
              25
  6
Continuous
 62
               7
100
AcDbVertex
100
AcDb2dVertex
 10
178.7893041936
 20
61.309680626519999
 30
0.0
  0
VERTEX
  5
D5
100
AcDbEntity
  8
0
370
              25
  6
Continuous
 62
               7
100
AcDbVertex
100
AcDb2dVertex
 10
178.70242081897999
 20
61.334714780159992
 30
0.0
  0
VERTEX
  5
D6
100
AcDbEntity
  8
0
370
              25
  6
Continuous
 62
               7
100
AcDbVertex
100
AcDb2dVertex
 10
178.60581000127999
 20
61.348158225459997
 30
0.0
  0
SEQEND
  5
D7
100
AcDbEntity
  8
0
370
              25
  6
Continuous
 62
               7
  0
ARC
  5
D8
100
AcDbEntity
  8
0
370
              25
  6
Continuous
 62
               7
100
AcDbCircle
 10
179.68573851959997
 20
62.10899443556
 30
0.0
 40
1.3210288951835443
100
AcDbArc
 50
201.34664396359986
 51
215.16563757749992
  0
POLYLINE
  5
D9
100
AcDbEntity
  8
0
370
              25
  6
Continuous
 62
               7
100
AcDb2dPolyline
 66
               1
 10
0.0
 20
0.0
 30
0.0
 75
               5
  0
VERTEX
  5
DA
100
AcDbEntity
  8
0
370
              25
  6
Continuous
 62
               7
100
AcDbVertex
100
AcDb2dVertex
 10
178.45533854708
 20
61.62812724642
 30
0.0
  0
VERTEX
  5
DB
100
AcDbEntity
  8
0
370
              25
  6
Continuous
 62
               7
100
AcDbVertex
100
AcDb2dVertex
 10
178.52545862527998
 20
61.663971802620004
 30
0.0
  0
VERTEX
  5
DC
100
AcDbEntity
  8
0
370
              25
  6
Continuous
 62
               7
100
AcDbVertex
100
AcDb2dVertex
 10
178.57554039964
 20
61.70741094612
 30
0.0
  0
VERTEX
  5
DD
100
AcDbEntity
  8
0
370
              25
  6
Continuous
 62
               7
100
AcDbVertex
100
AcDb2dVertex
 10
178.60244242101999
 20
61.755712927239998
 30
0.0
  0
VERTEX
  5
DE
100
AcDbEntity
  8
0
370
              25
  6
Continuous
 62
               7
100
AcDbVertex
100
AcDb2dVertex
 10
178.60447097170001
 20
61.805842598379996
 30
0.0
  0
VERTEX
  5
DF
100
AcDbEntity
  8
0
370
              25
  6
Continuous
 62
               7
100
AcDbVertex
100
AcDb2dVertex
 10
178.58150153326
 20
61.85464855867999
 30
0.0
  0
VERTEX
  5
E0
100
AcDbEntity
  8
0
370
              25
  6
Continuous
 62
               7
100
AcDbVertex
100
AcDb2dVertex
 10
178.53497133421999
 20
61.899065327859994
 30
0.0
  0
VERTEX
  5
E1
100
AcDbEntity
  8
0
370
              25
  6
Continuous
 62
               7
100
AcDbVertex
100
AcDb2dVertex
 10
178.46781032045999
 20
61.936299416459995
 30
0.0
  0
VERTEX
  5
E2
100
AcDbEntity
  8
0
370
              25
  6
Continuous
 62
               7
100
AcDbVertex
100
AcDb2dVertex
 10
178.38424141469997
 20
61.964010270359999
 30
0.0
  0
SEQEND
  5
E3
100
AcDbEntity
  8
0
370
              25
  6
Continuous
 62
               7
  0
ARC
  5
E4
100
AcDbEntity
  8
0
370
              25
  6
Continuous
 62
               7
100
AcDbCircle
 10
179.39982024713998
 20
62.00534911834
 30
0.0
 40
1.016419826599501
100
AcDbArc
 50
165.86735867839977
 51
182.33092168819994
  0
POLYLINE
  5
E5
100
AcDbEntity
  8
0
370
              25
  6
Continuous
 62
               7
100
AcDb2dPolyline
 66
               1
 10
0.0
 20
0.0
 30
0.0
 75
               5
  0
VERTEX
  5
E6
100
AcDbEntity
  8
0
370
              25
  6
Continuous
 62
               7
100
AcDbVertex
100
AcDb2dVertex
 10
178.41416432666
 20
62.253525815279993
 30
0.0
  0
VERTEX
  5
E7
100
AcDbEntity
  8
0
370
              25
  6
Continuous
 62
               7
100
AcDbVertex
100
AcDb2dVertex
 10
178.50300477381998
 20
62.276782466760004
 30
0.0
  0
VERTEX
  5
E8
100
AcDbEntity
  8
0
370
              25
  6
Continuous
 62
               7
100
AcDbVertex
100
AcDb2dVertex
 10
178.57748125173998
 20
62.310357352619995
 30
0.0
  0
VERTEX
  5
E9
100
AcDbEntity
  8
0
370
              25
  6
Continuous
 62
               7
100
AcDbVertex
100
AcDb2dVertex
 10
178.63291855513998
 20
62.352138780359994
 30
0.0
  0
VERTEX
  5
EA
100
AcDbEntity
  8
0
370
              25
  6
Continuous
 62
               7
100
AcDbVertex
100
AcDb2dVertex
 10
178.66583262952
 20
62.399500623659996
 30
0.0
  0
VERTEX
  5
EB
100
AcDbEntity
  8
0
370
              25
  6
Continuous
 62
               7
100
AcDbVertex
100
AcDb2dVertex
 10
178.67414793165997
 20
62.449468219940002
 30
0.0
  0
VERTEX
  5
EC
100
AcDbEntity
  8
0
370
              25
  6
Continuous
 62
               7
100
AcDbVertex
100
AcDb2dVertex
 10
178.65734663175999
 20
62.498899728899993
 30
0.0
  0
VERTEX
  5
ED
100
AcDbEntity
  8
0
370
              25
  6
Continuous
 62
               7
100
AcDbVertex
100
AcDb2dVertex
 10
178.61648646201999
 20
62.54468785932
 30
0.0
  0
VERTEX
  5
EE
100
AcDbEntity
  8
0
370
              25
  6
Continuous
 62
               7
100
AcDbVertex
100
AcDb2dVertex
 10
178.55413057961999
 20
62.583956175499999
 30
0.0
  0
SEQEND
  5
EF
100
AcDbEntity
  8
0
370
              25
  6
Continuous
 62
               7
  0
ARC
  5
F0
100
AcDbEntity
  8
0
370
              25
  6
Continuous
 62
               7
100
AcDbCircle
 10
179.94453876653998
 20
61.733613850279994
 30
0.0
 40
1.6298211542337577
100
AcDbArc
 50
136.54024336299977
 51
148.55098346629987
  0
POLYLINE
  5
F1
100
AcDbEntity
  8
0
370
              25
  6
Continuous
 62
               7
100
AcDb2dPolyline
 66
               1
 10
0.0
 20
0.0
 30
0.0
 75
               5
  0
VERTEX
  5
F2
100
AcDbEntity
  8
0
370
              25
  6
Continuous
 62
               7
100
AcDbVertex
100
AcDb2dVertex
 10
178.76152056869998
 20
62.854678047059998
 30
0.0
  0
VERTEX
  5
F3
100
AcDbEntity
  8
0
370
              25
  6
Continuous
 62
               7
100
AcDbVertex
100
AcDb2dVertex
 10
178.86038678447997
 20
62.863069709219999
 30
0.0
  0
VERTEX
  5
F4
100
AcDbEntity
  8
0
370
              25
  6
Continuous
 62
               7
100
AcDbVertex
100
AcDb2dVertex
 10
178.95196949691999
 20
62.883493277719992
 30
0.0
  0
VERTEX
  5
F5
100
AcDbEntity
  8
0
370
              25
  6
Continuous
 62
               7
100
AcDbVertex
100
AcDb2dVertex
 10
179.03051764309998
 20
62.914663667500001
 30
0.0
  0
VERTEX
  5
F6
100
AcDbEntity
  8
0
370
              25
  6
Continuous
 62
               7
100
AcDbVertex
100
AcDb2dVertex
 10
179.09108729081998
 20
62.954623899999994
 30
0.0
  0
VERTEX
  5
F7
100
AcDbEntity
  8
0
370
              25
  6
Continuous
 62
               7
100
AcDbVertex
100
AcDb2dVertex
 10
179.12988065747999
 20
63.000859850199994
 30
0.0
  0
VERTEX
  5
F8
100
AcDbEntity
  8
0
370
              25
  6
Continuous
 62
               7
100
AcDbVertex
100
AcDb2dVertex
 10
179.14445230473999
 20
63.050467673259995
 30
0.0
  0
VERTEX
  5
F9
100
AcDbEntity
  8
0
370
              25
  6
Continuous
 62
               7
100
AcDbVertex
100
AcDb2dVertex
 10
179.13388949121997
 20
63.100328607319994
 30
0.0
  0
VERTEX
  5
FA
100
AcDbEntity
  8
0
370
              25
  6
Continuous
 62
               7
100
AcDbVertex
100
AcDb2dVertex
 10
179.09885433904
 20
63.147309402359994
 30
0.0
  0
SEQEND
  5
FB
100
AcDbEntity
  8
0
370
              25
  6
Continuous
 62
               7
  0
ARC
  5
FC
100
AcDbEntity
  8
0
370
              25
  6
Continuous
 62
               7
100
AcDbCircle
 10
180.80665556655998
 20
60.771095173340001
 30
0.0
 40
2.926256840632282
100
AcDbArc
 50
123.05720543679992
 51
125.7050577541001
  0
ARC
  5
FD
100
AcDbEntity
  8
0
370
              25
  6
Continuous
 62
               7
100
AcDbCircle
 10
179.58190821418
 20
63.951122895059989
 30
0.0
 40
0.590399306460049
100
AcDbArc
 50
258.42159231369982
 51
304.4187980058993
  0
POLYLINE
  5
FE
100
AcDbEntity
  8
0
370
              25
  6
Continuous
 62
               7
100
AcDb2dPolyline
 66
               1
 10
0.0
 20
0.0
 30
0.0
 75
               5
  0
VERTEX
  5
FF
100
AcDbEntity
  8
0
370
              25
  6
Continuous
 62
               7
100
AcDbVertex
100
AcDb2dVertex
 10
179.31638072135999
 20
63.409457107679998
 30
0.0
  0
VERTEX
  5
100
100
AcDbEntity
  8
0
370
              25
  6
Continuous
 62
               7
100
AcDbVertex
100
AcDb2dVertex
 10
179.13349859284
 20
62.857078659480003
 30
0.0
  0
VERTEX
  5
101
100
AcDbEntity
  8
0
370
              25
  6
Continuous
 62
               7
100
AcDbVertex
100
AcDb2dVertex
 10
179.336428474
 20
62.306452813819995
 30
0.0
  0
VERTEX
  5
102
100
AcDbEntity
  8
0
370
              25
  6
Continuous
 62
               7
100
AcDbVertex
100
AcDb2dVertex
 10
179.90107787047998
 20
61.822947875319997
 30
0.0
  0
VERTEX
  5
103
100
AcDbEntity
  8
0
370
              25
  6
Continuous
 62
               7
100
AcDbVertex
100
AcDb2dVertex
 10
180.76041198619998
 20
61.463964209240004
 30
0.0
  0
VERTEX
  5
104
100
AcDbEntity
  8
0
370
              25
  6
Continuous
 62
               7
100
AcDbVertex
100
AcDb2dVertex
 10
181.81241713136001
 20
61.272117943199994
 30
0.0
  0
VERTEX
  5
105
100
AcDbEntity
  8
0
370
              25
  6
Continuous
 62
               7
100
AcDbVertex
100
AcDb2dVertex
 10
182.93220362177999
 20
61.270184218339999
 30
0.0
  0
VERTEX
  5
106
100
AcDbEntity
  8
0
370
              25
  6
Continuous
 62
               7
100
AcDbVertex
100
AcDb2dVertex
 10
183.98683383153997
 20
61.458393018960003
 30
0.0
  0
VERTEX
  5
107
100
AcDbEntity
  8
0
370
              25
  6
Continuous
 62
               7
100
AcDbVertex
100
AcDb2dVertex
 10
184.85110667499998
 20
61.814401021699993
 30
0.0
  0
SEQEND
  5
108
100
AcDbEntity
  8
0
370
              25
  6
Continuous
 62
               7
  0
LINE
  5
109
100
AcDbEntity
  8
0
370
              25
  6
Continuous
 62
               7
100
AcDbLine
 10
184.85110667499998
 20
61.814401021699993
 30
0.0
 11
184.85110667499998
 21
60.948375476640003
 31
0.0
  0
LINE
  5
10A
100
AcDbEntity
  8
0
370
              25
  6
Continuous
 62
               7
100
AcDbLine
 10
184.85110667499998
 20
61.814401021699993
 30
0.0
 11
179.31638072135999
 21
63.409457107679998
 31
0.0
  0
LINE
  5
10B
100
AcDbEntity
  8
0
370
              25
  6
Continuous
 62
               7
100
AcDbLine
 10
183.13875280990001
 20
60.04180671828
 30
0.0
 11
183.13875280990001
 21
49.216489816760003
 31
0.0
  0
ARC
  5
10C
100
AcDbEntity
  8
0
370
              25
  6
Continuous
 62
               7
100
AcDbCircle
 10
182.83113035427999
 20
48.664686683639992
 30
0.0
 40
0.6317580797686779
100
AcDbArc
 50
60.860950347100449
 51
125.19760367789925
  0
LINE
  5
10D
100
AcDbEntity
  8
0
370
              25
  6
Continuous
 62
               7
100
AcDbLine
 10
182.46698617274001
 20
49.180939806579993
 30
0.0
 11
182.46698617274001
 21
60.006256708099997
 31
0.0
  0
LINE
  5
10E
100
AcDbEntity
  8
0
370
              25
  6
Continuous
 62
               7
100
AcDbLine
 10
181.88795432597999
 20
60.021218786379997
 30
0.0
 11
181.88795432597999
 21
49.19590188486
 31
0.0
  0
ARC
  5
10F
100
AcDbEntity
  8
0
370
              25
  6
Continuous
 62
               7
100
AcDbCircle
 10
182.38313840545999
 20
57.147770309259997
 30
0.0
 40
7.9672717236612414
100
AcDbArc
 50
266.43664016330013
 51
270.60299334609994
  0
ARC
  5
110
100
AcDbEntity
  8
0
370
              25
  6
Continuous
 62
               7
100
AcDbCircle
 10
181.50370522148
 20
48.722687906219996
 30
0.0
 40
0.6095726731039165
100
AcDbArc
 50
50.923448811500009
 51
116.98649045039882
  0
LINE
  5
111
100
AcDbEntity
  8
0
370
              25
  6
Continuous
 62
               7
100
AcDbLine
 10
181.22709309246
 20
49.265886370239997
 30
0.0
 11
181.22709309246
 21
60.091203271759994
 31
0.0
  0
LINE
  5
112
100
AcDbEntity
  8
0
370
              25
  6
Continuous
 62
               7
100
AcDbLine
 10
183.69869093817999
 20
49.291725383839996
 30
0.0
 11
183.69869093817999
 21
60.11704228536
 31
0.0
  0
ARC
  5
113
100
AcDbEntity
  8
0
370
              25
  6
Continuous
 62
               7
100
AcDbCircle
 10
182.43493059803998
 20
56.575940388659994
 30
0.0
 40
7.3930290424689291
100
AcDbArc
 50
275.46287666180001
 51
279.84244530860008
  0
LINE
  5
114
100
AcDbEntity
  8
0
370
              25
  6
Continuous
 62
               7
100
AcDbLine
 10
184.31560749708001
 20
60.254646236719999
 30
0.0
 11
184.31560749708001
 21
49.429329335199995
 31
0.0
  0
ARC
  5
115
100
AcDbEntity
  8
0
370
              25
  6
Continuous
 62
               7
100
AcDbCircle
 10
184.09916797059998
 20
48.947981852379996
 30
0.0
 40
0.52777028030327
100
AcDbArc
 50
65.788771882998844
 51
139.35934644280019
  0
LINE
  5
116
100
AcDbEntity
  8
0
370
              25
  6
Continuous
 62
               7
100
AcDbLine
 10
180.68564850097999
 20
60.194897971659998
 30
0.0
 11
180.68564850097999
 21
49.369581070140001
 31
0.0
  0
ARC
  5
117
100
AcDbEntity
  8
0
370
              25
  6
Continuous
 62
               7
100
AcDbCircle
 10
182.24731771952
 20
56.058446892279996
 30
0.0
 40
6.8687507402176147
100
AcDbArc
 50
256.8583916422001
 51
261.45817588039989
  0
LINE
  5
118
100
AcDbEntity
  8
0
370
              25
  6
Continuous
 62
               7
100
AcDbLine
 10
184.80164136626001
 20
49.587397980199995
 30
0.0
 11
184.80164136626001
 21
60.412714884259991
 31
0.0
  0
ARC
  5
119
100
AcDbEntity
  8
0
370
              25
  6
Continuous
 62
               7
100
AcDbCircle
 10
182.86770256459999
 20
54.707657264679995
 30
0.0
 40
5.4733147566489952
100
AcDbArc
 50
285.33955887029998
 51
290.69171607399988
  0
POLYLINE
  5
11A
100
AcDbEntity
  8
0
370
              25
  6
Continuous
 62
               7
100
AcDb2dPolyline
 66
               1
 10
0.0
 20
0.0
 30
0.0
 75
               5
  0
VERTEX
  5
11B
100
AcDbEntity
  8
0
370
              25
  6
Continuous
 62
               7
100
AcDbVertex
100
AcDb2dVertex
 10
180.68564850097999
 20
49.369581070140001
 30
0.0
  0
VERTEX
  5
11C
100
AcDbEntity
  8
0
370
              25
  6
Continuous
 62
               7
100
AcDbVertex
100
AcDb2dVertex
 10
180.66886551956
 20
49.419013541760002
 30
0.0
  0
VERTEX
  5
11D
100
AcDbEntity
  8
0
370
              25
  6
Continuous
 62
               7
100
AcDbVertex
100
AcDb2dVertex
 10
180.62801855274
 20
49.464805657439996
 30
0.0
  0
VERTEX
  5
11E
100
AcDbEntity
  8
0
370
              25
  6
Continuous
 62
               7
100
AcDbVertex
100
AcDb2dVertex
 10
180.56567683591999
 20
49.504078789459996
 30
0.0
  0
VERTEX
  5
11F
100
AcDbEntity
  8
0
370
              25
  6
Continuous
 62
               7
100
AcDbVertex
100
AcDb2dVertex
 10
180.48576053398
 20
49.534364294039996
 30
0.0
  0
VERTEX
  5
120
100
AcDbEntity
  8
0
370
              25
  6
Continuous
 62
               7
100
AcDbVertex
100
AcDb2dVertex
 10
180.39328695971997
 20
49.553759980419997
 30
0.0
  0
VERTEX
  5
121
100
AcDbEntity
  8
0
370
              25
  6
Continuous
 62
               7
100
AcDbVertex
100
AcDb2dVertex
 10
180.29407033824
 20
49.561046353959995
 30
0.0
  0
VERTEX
  5
122
100
AcDbEntity
  8
0
370
              25
  6
Continuous
 62
               7
100
AcDbVertex
100
AcDb2dVertex
 10
180.19434788083998
 20
49.555765117379998
 30
0.0
  0
VERTEX
  5
123
100
AcDbEntity
  8
0
370
              25
  6
Continuous
 62
               7
100
AcDbVertex
100
AcDb2dVertex
 10
180.10038729151998
 20
49.538248060719994
 30
0.0
  0
SEQEND
  5
124
100
AcDbEntity
  8
0
370
              25
  6
Continuous
 62
               7
  0
LINE
  5
125
100
AcDbEntity
  8
0
370
              25
  6
Continuous
 62
               7
100
AcDbLine
 10
180.10038729151998
 20
49.538248060719994
 30
0.0
 11
180.10038729151998
 21
60.363564962239991
 31
0.0
  0
LINE
  5
126
100
AcDbEntity
  8
0
370
              25
  6
Continuous
 62
               7
100
AcDbLine
 10
185.30332238474
 20
60.638902407499998
 30
0.0
 11
185.30332238474
 21
49.813585505979994
 31
0.0
  0
POLYLINE
  5
127
100
AcDbEntity
  8
0
370
              25
  6
Continuous
 62
               7
100
AcDb2dPolyline
 66
               1
 10
0.0
 20
0.0
 30
0.0
 75
               5
  0
VERTEX
  5
128
100
AcDbEntity
  8
0
370
              25
  6
Continuous
 62
               7
100
AcDbVertex
100
AcDb2dVertex
 10
185.30332238474
 20
49.813585505979994
 30
0.0
  0
VERTEX
  5
129
100
AcDbEntity
  8
0
370
              25
  6
Continuous
 62
               7
100
AcDbVertex
100
AcDb2dVertex
 10
185.20411033526
 20
49.820879565559999
 30
0.0
  0
VERTEX
  5
12A
100
AcDbEntity
  8
0
370
              25
  6
Continuous
 62
               7
100
AcDbVertex
100
AcDb2dVertex
 10
185.10438486541997
 20
49.81560689386
 30
0.0
  0
VERTEX
  5
12B
100
AcDbEntity
  8
0
370
              25
  6
Continuous
 62
               7
100
AcDbVertex
100
AcDb2dVertex
 10
185.01041989460001
 20
49.798097218439999
 30
0.0
  0
VERTEX
  5
12C
100
AcDbEntity
  8
0
370
              25
  6
Continuous
 62
               7
100
AcDbVertex
100
AcDb2dVertex
 10
184.92811619078
 20
49.769452343040001
 30
0.0
  0
VERTEX
  5
12D
100
AcDbEntity
  8
0
370
              25
  6
Continuous
 62
               7
100
AcDbVertex
100
AcDb2dVertex
 10
184.86264579848
 20
49.731472904139991
 30
0.0
  0
VERTEX
  5
12E
100
AcDbEntity
  8
0
370
              25
  6
Continuous
 62
               7
100
AcDbVertex
100
AcDb2dVertex
 10
184.81812731245998
 20
49.686544792319999
 30
0.0
  0
VERTEX
  5
12F
100
AcDbEntity
  8
0
370
              25
  6
Continuous
 62
               7
100
AcDbVertex
100
AcDb2dVertex
 10
184.80164052806001
 20
49.654445029239994
 30
0.0
  0
SEQEND
  5
130
100
AcDbEntity
  8
0
370
              25
  6
Continuous
 62
               7
  0
LINE
  5
131
100
AcDbEntity
  8
0
370
              25
  6
Continuous
 62
               7
100
AcDbLine
 10
179.64953105581998
 20
60.545841864639996
 30
0.0
 11
179.64953105581998
 21
49.720524963119999
 31
0.0
  0
ARC
  5
132
100
AcDbEntity
  8
0
370
              25
  6
Continuous
 62
               7
100
AcDbCircle
 10
181.64001976978
 20
53.995208867379993
 30
0.0
 40
4.7153968868437213
100
AcDbArc
 50
245.03115532369995
 51
250.94281103549983
  0
ARC
  5
133
100
AcDbEntity
  8
0
370
              25
  6
Continuous
 62
               7
100
AcDbCircle
 10
179.29383185866001
 20
49.491342320139999
 30
0.0
 40
0.4896612078244332
100
AcDbArc
 50
43.413198900300848
 51
101.38703144830041
  0
LINE
  5
134
100
AcDbEntity
  8
0
370
              25
  6
Continuous
 62
               7
100
AcDbLine
 10
179.19715537433999
 20
49.971364982139995
 30
0.0
 11
179.19715537433999
 21
60.79668188366
 31
0.0
  0
LINE
  5
135
100
AcDbEntity
  8
0
370
              25
  6
Continuous
 62
               7
100
AcDbLine
 10
185.66787795229999
 20
50.039013752099997
 30
0.0
 11
185.66787795229999
 21
60.86433065616
 31
0.0
  0
ARC
  5
136
100
AcDbEntity
  8
0
370
              25
  6
Continuous
 62
               7
100
AcDbCircle
 10
183.79057974601997
 20
52.667434070559992
 30
0.0
 40
3.2299910099620388
100
AcDbArc
 50
297.92676983009989
 51
305.53558654010016
  0
LINE
  5
137
100
AcDbEntity
  8
0
370
              25
  6
Continuous
 62
               7
100
AcDbLine
 10
178.88101640031999
 20
61.039699573900002
 30
0.0
 11
178.88101640031999
 21
50.214382672379998
 31
0.0
  0
ARC
  5
138
100
AcDbEntity
  8
0
370
              25
  6
Continuous
 62
               7
100
AcDbCircle
 10
180.61973486852
 20
52.149122275080003
 30
0.0
 40
2.6012226443624571
100
AcDbArc
 50
228.05449026019988
 51
236.84616861749984
  0
LINE
  5
139
100
AcDbEntity
  8
0
370
              25
  6
Continuous
 62
               7
100
AcDbLine
 10
186.00521172263998
 20
61.15696200891999
 30
0.0
 11
186.00521172263998
 21
50.331645107399993
 31
0.0
  0
ARC
  5
13A
100
AcDbEntity
  8
0
370
              25
  6
Continuous
 62
               7
100
AcDbCircle
 10
185.97446638154
 20
49.843353597319997
 30
0.0
 40
0.4892584934779112
100
AcDbArc
 50
86.39711957059977
 51
128.80264201680117
  0
ARC
  5
13B
100
AcDbEntity
  8
0
370
              25
  6
Continuous
 62
               7
100
AcDbCircle
 10
178.59360619027998
 20
50.006931212759994
 30
0.0
 40
0.516054430482371
100
AcDbArc
 50
56.15535141639959
 51
88.644925832800993
  0
LINE
  5
13C
100
AcDbEntity
  8
0
370
              25
  6
Continuous
 62
               7
100
AcDbLine
 10
178.60581000127999
 20
50.522841323939993
 30
0.0
 11
178.60581000127999
 21
61.348158225459997
 31
0.0
  0
LINE
  5
13D
100
AcDbEntity
  8
0
370
              25
  6
Continuous
 62
               7
100
AcDbLine
 10
186.21260171172
 20
50.602366981499998
 30
0.0
 11
186.21260171172
 21
61.427683883019995
 31
0.0
  0
ARC
  5
13E
100
AcDbEntity
  8
0
370
              25
  6
Continuous
 62
               7
100
AcDbCircle
 10
184.82219352479999
 20
51.45270930417999
 30
0.0
 40
1.6298211542349947
100
AcDbArc
 50
316.54024336300034
 51
328.55098346630001
  0
LINE
  5
13F
100
AcDbEntity
  8
0
370
              25
  6
Continuous
 62
               7
100
AcDbLine
 10
185.45035156997997
 20
61.468208495900001
 30
0.0
 11
185.45035156997997
 21
62.334234040959991
 31
0.0
  0
POLYLINE
  5
140
100
AcDbEntity
  8
0
370
              25
  6
Continuous
 62
               7
100
AcDb2dPolyline
 66
               1
 10
0.0
 20
0.0
 30
0.0
 75
               5
  0
VERTEX
  5
141
100
AcDbEntity
  8
0
370
              25
  6
Continuous
 62
               7
100
AcDbVertex
100
AcDb2dVertex
 10
185.45035156997997
 20
62.334234040959991
 30
0.0
  0
VERTEX
  5
142
100
AcDbEntity
  8
0
370
              25
  6
Continuous
 62
               7
100
AcDbVertex
100
AcDb2dVertex
 10
185.63323047269998
 20
62.886613418799989
 30
0.0
  0
VERTEX
  5
143
100
AcDbEntity
  8
0
370
              25
  6
Continuous
 62
               7
100
AcDbVertex
100
AcDb2dVertex
 10
185.43030381733999
 20
63.437238334819995
 30
0.0
  0
VERTEX
  5
144
100
AcDbEntity
  8
0
370
              25
  6
Continuous
 62
               7
100
AcDbVertex
100
AcDb2dVertex
 10
184.86565442339997
 20
63.920743273319999
 30
0.0
  0
VERTEX
  5
145
100
AcDbEntity
  8
0
370
              25
  6
Continuous
 62
               7
100
AcDbVertex
100
AcDb2dVertex
 10
184.00632030514001
 20
64.279726939399993
 30
0.0
  0
VERTEX
  5
146
100
AcDbEntity
  8
0
370
              25
  6
Continuous
 62
               7
100
AcDbVertex
100
AcDb2dVertex
 10
182.95431515998001
 20
64.471573202900004
 30
0.0
  0
VERTEX
  5
147
100
AcDbEntity
  8
0
370
              25
  6
Continuous
 62
               7
100
AcDbVertex
100
AcDb2dVertex
 10
181.83452867209999
 20
64.473506927759999
 30
0.0
  0
VERTEX
  5
148
100
AcDbEntity
  8
0
370
              25
  6
Continuous
 62
               7
100
AcDbVertex
100
AcDb2dVertex
 10
180.77989845979999
 20
64.285298129679987
 30
0.0
  0
VERTEX
  5
149
100
AcDbEntity
  8
0
370
              25
  6
Continuous
 62
               7
100
AcDbVertex
100
AcDb2dVertex
 10
179.91562561634001
 20
63.929290126939996
 30
0.0
  0
SEQEND
  5
14A
100
AcDbEntity
  8
0
370
              25
  6
Continuous
 62
               7
  0
LINE
  5
14B
100
AcDbEntity
  8
0
370
              25
  6
Continuous
 62
               7
100
AcDbLine
 10
179.91562561634001
 20
63.929290126939996
 30
0.0
 11
179.91562561634001
 21
63.236761339279994
 31
0.0
  0
LINE
  5
14C
100
AcDbEntity
  8
0
370
              25
  6
Continuous
 62
               7
100
AcDbLine
 10
179.91562561634001
 20
63.929290126939996
 30
0.0
 11
185.45035156997997
 21
62.334234040959991
 31
0.0
  0
LINE
  5
14D
100
AcDbEntity
  8
0
370
              25
  6
Continuous
 62
               7
100
AcDbLine
 10
178.45533854708
 20
61.62812724642
 30
0.0
 11
178.45533854708
 21
50.802810344899989
 31
0.0
  0
ARC
  5
14E
100
AcDbEntity
  8
0
370
              25
  6
Continuous
 62
               7
100
AcDbCircle
 10
179.68573851959997
 20
51.283677534040002
 30
0.0
 40
1.3210288951835154
100
AcDbArc
 50
201.34664396360003
 51
215.16563757750009
  0
LINE
  5
14F
100
AcDbEntity
  8
0
370
              25
  6
Continuous
 62
               7
100
AcDbLine
 10
186.35256796467999
 20
61.758114243239994
 30
0.0
 11
186.35256796467999
 21
50.932797339179992
 31
0.0
  0
POLYLINE
  5
150
100
AcDbEntity
  8
0
370
              25
  6
Continuous
 62
               7
100
AcDb2dPolyline
 66
               1
 10
0.0
 20
0.0
 30
0.0
 75
               5
  0
VERTEX
  5
151
100
AcDbEntity
  8
0
370
              25
  6
Continuous
 62
               7
100
AcDbVertex
100
AcDb2dVertex
 10
186.35256796467999
 20
50.932797339179992
 30
0.0
  0
VERTEX
  5
152
100
AcDbEntity
  8
0
370
              25
  6
Continuous
 62
               7
100
AcDbVertex
100
AcDb2dVertex
 10
186.26372751751998
 20
50.909540690239993
 30
0.0
  0
VERTEX
  5
153
100
AcDbEntity
  8
0
370
              25
  6
Continuous
 62
               7
100
AcDbVertex
100
AcDb2dVertex
 10
186.21260016993998
 20
50.888397161279997
 30
0.0
  0
SEQEND
  5
154
100
AcDbEntity
  8
0
370
              25
  6
Continuous
 62
               7
  0
LINE
  5
155
100
AcDbEntity
  8
0
370
              25
  6
Continuous
 62
               7
100
AcDbLine
 10
178.45533796795999
 20
51.116140284659991
 30
0.0
 11
178.38424141469997
 21
51.138693368839995
 31
0.0
  0
LINE
  5
156
100
AcDbEntity
  8
0
370
              25
  6
Continuous
 62
               7
100
AcDbLine
 10
178.38424141469997
 20
51.138693368839995
 30
0.0
 11
178.38424141469997
 21
61.964010270359999
 31
0.0
  0
ARC
  5
157
100
AcDbEntity
  8
0
370
              25
  6
Continuous
 62
               7
100
AcDbCircle
 10
185.36091118497998
 20
51.181865466899993
 30
0.0
 40
1.0224568960812004
100
AcDbArc
 50
345.90102390189992
 51
359.92364444319986
  0
POLYLINE
  5
158
100
AcDbEntity
  8
0
370
              25
  6
Continuous
 62
               7
100
AcDb2dPolyline
 66
               1
 10
0.0
 20
0.0
 30
0.0
 75
               5
  0
VERTEX
  5
159
100
AcDbEntity
  8
0
370
              25
  6
Continuous
 62
               7
100
AcDbVertex
100
AcDb2dVertex
 10
178.38424141469997
 20
51.138693368839995
 30
0.0
  0
VERTEX
  5
15A
100
AcDbEntity
  8
0
370
              25
  6
Continuous
 62
               7
100
AcDbVertex
100
AcDb2dVertex
 10
178.38338217588
 20
51.174960006999996
 30
0.0
  0
VERTEX
  5
15B
100
AcDbEntity
  8
0
370
              25
  6
Continuous
 62
               7
100
AcDbVertex
100
AcDb2dVertex
 10
178.38336511978
 20
51.180503366499998
 30
0.0
  0
SEQEND
  5
15C
100
AcDbEntity
  8
0
370
              25
  6
Continuous
 62
               7
  0
LINE
  5
15D
100
AcDbEntity
  8
0
370
              25
  6
Continuous
 62
               7
100
AcDbLine
 10
186.31139374425999
 20
62.383512809559996
 30
0.0
 11
186.31139374425999
 21
62.070183037439996
 31
0.0
  0
LINE
  5
15E
100
AcDbEntity
  8
0
370
              25
  6
Continuous
 62
               7
100
AcDbLine
 10
178.55413057961999
 20
62.297926473240004
 30
0.0
 11
178.55413057961999
 21
62.583956175499999
 31
0.0
  0
LINE
  5
15F
100
AcDbEntity
  8
0
370
              25
  6
Continuous
 62
               7
100
AcDbLine
 10
185.88571266521998
 20
62.971941414259994
 30
0.0
 11
185.88571266521998
 21
62.750784063840001
 31
0.0
  0
LINE
  5
160
100
AcDbEntity
  8
0
370
              25
  6
Continuous
 62
               7
100
AcDbLine
 10
179.09885433904
 20
62.961686987219998
 30
0.0
 11
179.09885433904
 21
63.147309402359994
 31
0.0
  0
LINE
  5
161
100
AcDbEntity
  8
0
370
              25
  6
Continuous
 62
               7
100
AcDbLine
 10
101.70958885879999
 20
85.6396941
 30
0.0
 11
101.80710485122
 21
85.611496373820003
 31
0.0
  0
POLYLINE
  5
162
100
AcDbEntity
  8
0
370
              25
  6
Continuous
 62
               7
100
AcDb2dPolyline
 66
               1
 10
0.0
 20
0.0
 30
0.0
 75
               5
  0
VERTEX
  5
163
100
AcDbEntity
  8
0
370
              25
  6
Continuous
 62
               7
100
AcDbVertex
100
AcDb2dVertex
 10
95.994925848219992
 20
86.005820451819986
 30
0.0
  0
VERTEX
  5
164
100
AcDbEntity
  8
0
370
              25
  6
Continuous
 62
               7
100
AcDbVertex
100
AcDb2dVertex
 10
95.995021174419989
 20
85.993415833499995
 30
0.0
  0
VERTEX
  5
165
100
AcDbEntity
  8
0
370
              25
  6
Continuous
 62
               7
100
AcDbVertex
100
AcDb2dVertex
 10
96.196349080119987
 20
85.442643158059994
 30
0.0
  0
VERTEX
  5
166
100
AcDbEntity
  8
0
370
              25
  6
Continuous
 62
               7
100
AcDbVertex
100
AcDb2dVertex
 10
96.759591634100005
 20
84.958728245779994
 30
0.0
  0
VERTEX
  5
167
100
AcDbEntity
  8
0
370
              25
  6
Continuous
 62
               7
100
AcDbVertex
100
AcDb2dVertex
 10
97.617881682819998
 20
84.599119787959992
 30
0.0
  0
VERTEX
  5
168
100
AcDbEntity
  8
0
370
              25
  6
Continuous
 62
               7
100
AcDbVertex
100
AcDb2dVertex
 10
98.669326691939986
 20
84.406509035260001
 30
0.0
  0
VERTEX
  5
169
100
AcDbEntity
  8
0
370
              25
  6
Continuous
 62
               7
100
AcDbVertex
100
AcDb2dVertex
 10
99.789106509779998
 20
84.40376114387999
 30
0.0
  0
VERTEX
  5
16A
100
AcDbEntity
  8
0
370
              25
  6
Continuous
 62
               7
100
AcDbVertex
100
AcDb2dVertex
 10
100.84428339103999
 20
84.59120284926
 30
0.0
  0
VERTEX
  5
16B
100
AcDbEntity
  8
0
370
              25
  6
Continuous
 62
               7
100
AcDbVertex
100
AcDb2dVertex
 10
101.7095898621
 20
84.946582356939999
 30
0.0
  0
SEQEND
  5
16C
100
AcDbEntity
  8
0
370
              25
  6
Continuous
 62
               7
  0
POLYLINE
  5
16D
100
AcDbEntity
  8
0
370
              25
  6
Continuous
 62
               7
100
AcDb2dPolyline
 66
               1
 10
0.0
 20
0.0
 30
0.0
 75
               5
  0
VERTEX
  5
16E
100
AcDbEntity
  8
0
370
              25
  6
Continuous
 62
               7
100
AcDbVertex
100
AcDb2dVertex
 10
101.80710479534
 20
84.601938928879989
 30
0.0
  0
VERTEX
  5
16F
100
AcDbEntity
  8
0
370
              25
  6
Continuous
 62
               7
100
AcDbVertex
100
AcDb2dVertex
 10
101.78556821154001
 20
84.592921301499999
 30
0.0
  0
VERTEX
  5
170
100
AcDbEntity
  8
0
370
              25
  6
Continuous
 62
               7
100
AcDbVertex
100
AcDb2dVertex
 10
101.71999212983999
 20
84.554988169339993
 30
0.0
  0
VERTEX
  5
171
100
AcDbEntity
  8
0
370
              25
  6
Continuous
 62
               7
100
AcDbVertex
100
AcDb2dVertex
 10
101.67534322497998
 20
84.51009239679999
 30
0.0
  0
VERTEX
  5
172
100
AcDbEntity
  8
0
370
              25
  6
Continuous
 62
               7
100
AcDbVertex
100
AcDb2dVertex
 10
101.65442805472
 20
84.461055692740004
 30
0.0
  0
VERTEX
  5
173
100
AcDbEntity
  8
0
370
              25
  6
Continuous
 62
               7
100
AcDbVertex
100
AcDb2dVertex
 10
101.65856657577999
 20
84.410958325319996
 30
0.0
  0
SEQEND
  5
174
100
AcDbEntity
  8
0
370
              25
  6
Continuous
 62
               7
  0
ARC
  5
175
100
AcDbEntity
  8
0
370
              25
  6
Continuous
 62
               7
100
AcDbCircle
 10
99.726168891179995
 20
89.542531846759985
 30
0.0
 40
5.4833573314689188
100
AcDbArc
 50
285.2890945904
 51
290.63487881059996
  0
ARC
  5
176
100
AcDbEntity
  8
0
370
              25
  6
Continuous
 62
               7
100
AcDbCircle
 10
100.95525654983999
 20
83.771301255639997
 30
0.0
 40
0.5284671146830751
100
AcDbArc
 50
65.778007026600946
 51
139.27508564209933
  0
ARC
  5
177
100
AcDbEntity
  8
0
370
              25
  6
Continuous
 62
               7
100
AcDbCircle
 10
99.295567230159989
 20
91.408181115199994
 30
0.0
 40
7.4000122828269861
100
AcDbArc
 50
275.42046344020014
 51
279.79715376569999
  0
ARC
  5
178
100
AcDbEntity
  8
0
370
              25
  6
Continuous
 62
               7
100
AcDbCircle
 10
99.686547438799991
 20
83.489456106860004
 30
0.0
 40
0.6319684122055436
100
AcDbArc
 50
60.826819282999722
 51
125.14771530499989
  0
ARC
  5
179
100
AcDbEntity
  8
0
370
              25
  6
Continuous
 62
               7
100
AcDbCircle
 10
99.244662818379993
 20
91.97137627024
 30
0.0
 40
7.9655607667867203
100
AcDbArc
 50
266.39453860890001
 51
270.56155443829999
  0
ARC
  5
17A
100
AcDbEntity
  8
0
370
              25
  6
Continuous
 62
               7
100
AcDbCircle
 10
98.359262193959992
 20
83.549085741219997
 30
0.0
 40
0.6091616643195316
100
AcDbArc
 50
50.863918100399744
 51
116.95997108139936
  0
ARC
  5
17B
100
AcDbEntity
  8
0
370
              25
  6
Continuous
 62
               7
100
AcDbCircle
 10
99.107282130479987
 20
90.875414276239994
 30
0.0
 40
6.8602522763733882
100
AcDbArc
 50
256.81037395209995
 51
261.4139868316999
  0
POLYLINE
  5
17C
100
AcDbEntity
  8
0
370
              25
  6
Continuous
 62
               7
100
AcDb2dPolyline
 66
               1
 10
0.0
 20
0.0
 30
0.0
 75
               5
  0
VERTEX
  5
17D
100
AcDbEntity
  8
0
370
              25
  6
Continuous
 62
               7
100
AcDbVertex
100
AcDb2dVertex
 10
97.541946876599994
 20
84.196133862919993
 30
0.0
  0
VERTEX
  5
17E
100
AcDbEntity
  8
0
370
              25
  6
Continuous
 62
               7
100
AcDbVertex
100
AcDb2dVertex
 10
97.525307014020001
 20
84.245578518919999
 30
0.0
  0
VERTEX
  5
17F
100
AcDbEntity
  8
0
370
              25
  6
Continuous
 62
               7
100
AcDbVertex
100
AcDb2dVertex
 10
97.484593155899987
 20
84.291400228139992
 30
0.0
  0
VERTEX
  5
180
100
AcDbEntity
  8
0
370
              25
  6
Continuous
 62
               7
100
AcDbVertex
100
AcDb2dVertex
 10
97.422364476699997
 20
84.330719097939991
 30
0.0
  0
VERTEX
  5
181
100
AcDbEntity
  8
0
370
              25
  6
Continuous
 62
               7
100
AcDbVertex
100
AcDb2dVertex
 10
97.34253337397999
 20
84.36106348733999
 30
0.0
  0
VERTEX
  5
182
100
AcDbEntity
  8
0
370
              25
  6
Continuous
 62
               7
100
AcDbVertex
100
AcDb2dVertex
 10
97.250119187460001
 20
84.380525508359995
 30
0.0
  0
VERTEX
  5
183
100
AcDbEntity
  8
0
370
              25
  6
Continuous
 62
               7
100
AcDbVertex
100
AcDb2dVertex
 10
97.150925268500004
 20
84.387883697859991
 30
0.0
  0
VERTEX
  5
184
100
AcDbEntity
  8
0
370
              25
  6
Continuous
 62
               7
100
AcDbVertex
100
AcDb2dVertex
 10
97.051187517759999
 20
84.382674897000001
 30
0.0
  0
VERTEX
  5
185
100
AcDbEntity
  8
0
370
              25
  6
Continuous
 62
               7
100
AcDbVertex
100
AcDb2dVertex
 10
96.957176473879997
 20
84.365225904719992
 30
0.0
  0
SEQEND
  5
186
100
AcDbEntity
  8
0
370
              25
  6
Continuous
 62
               7
  0
ARC
  5
187
100
AcDbEntity
  8
0
370
              25
  6
Continuous
 62
               7
100
AcDbCircle
 10
98.497606593419988
 20
88.810702154719991
 30
0.0
 40
4.7048043582125576
100
AcDbArc
 50
244.96746900639999
 51
250.88796353230003
  0
POLYLINE
  5
188
100
AcDbEntity
  8
0
370
              25
  6
Continuous
 62
               7
100
AcDb2dPolyline
 66
               1
 10
0.0
 20
0.0
 30
0.0
 75
               5
  0
VERTEX
  5
189
100
AcDbEntity
  8
0
370
              25
  6
Continuous
 62
               7
100
AcDbVertex
100
AcDb2dVertex
 10
96.506849688480003
 20
84.547830939560001
 30
0.0
  0
VERTEX
  5
18A
100
AcDbEntity
  8
0
370
              25
  6
Continuous
 62
               7
100
AcDbVertex
100
AcDb2dVertex
 10
96.52158030164
 20
84.59742741897999
 30
0.0
  0
VERTEX
  5
18B
100
AcDbEntity
  8
0
370
              25
  6
Continuous
 62
               7
100
AcDbVertex
100
AcDb2dVertex
 10
96.511181351139996
 20
84.647296153379997
 30
0.0
  0
VERTEX
  5
18C
100
AcDbEntity
  8
0
370
              25
  6
Continuous
 62
               7
100
AcDbVertex
100
AcDb2dVertex
 10
96.476299226339989
 20
84.694305162739994
 30
0.0
  0
VERTEX
  5
18D
100
AcDbEntity
  8
0
370
              25
  6
Continuous
 62
               7
100
AcDbVertex
100
AcDb2dVertex
 10
96.41913003917999
 20
84.735498562699988
 30
0.0
  0
VERTEX
  5
18E
100
AcDbEntity
  8
0
370
              25
  6
Continuous
 62
               7
100
AcDbVertex
100
AcDb2dVertex
 10
96.343262865539998
 20
84.768288613959996
 30
0.0
  0
VERTEX
  5
18F
100
AcDbEntity
  8
0
370
              25
  6
Continuous
 62
               7
100
AcDbVertex
100
AcDb2dVertex
 10
96.253473540419989
 20
84.790612425039996
 30
0.0
  0
VERTEX
  5
190
100
AcDbEntity
  8
0
370
              25
  6
Continuous
 62
               7
100
AcDbVertex
100
AcDb2dVertex
 10
96.155396891259997
 20
84.801069064019998
 30
0.0
  0
VERTEX
  5
191
100
AcDbEntity
  8
0
370
              25
  6
Continuous
 62
               7
100
AcDbVertex
100
AcDb2dVertex
 10
96.055202387559987
 20
84.799000005419998
 30
0.0
  0
SEQEND
  5
192
100
AcDbEntity
  8
0
370
              25
  6
Continuous
 62
               7
  0
ARC
  5
193
100
AcDbEntity
  8
0
370
              25
  6
Continuous
 62
               7
100
AcDbCircle
 10
97.476354475400001
 20
86.968022182479999
 30
0.0
 40
2.5931314017863705
100
AcDbArc
 50
227.95718619019988
 51
236.76702123059997
  0
POLYLINE
  5
194
100
AcDbEntity
  8
0
370
              25
  6
Continuous
 62
               7
100
AcDb2dPolyline
 66
               1
 10
0.0
 20
0.0
 30
0.0
 75
               5
  0
VERTEX
  5
195
100
AcDbEntity
  8
0
370
              25
  6
Continuous
 62
               7
100
AcDbVertex
100
AcDb2dVertex
 10
95.739771385200001
 20
85.042247110999995
 30
0.0
  0
VERTEX
  5
196
100
AcDbEntity
  8
0
370
              25
  6
Continuous
 62
               7
100
AcDbVertex
100
AcDb2dVertex
 10
95.784437003259995
 20
85.087138730639992
 30
0.0
  0
VERTEX
  5
197
100
AcDbEntity
  8
0
370
              25
  6
Continuous
 62
               7
100
AcDbVertex
100
AcDb2dVertex
 10
95.805364411239992
 20
85.13617485812
 30
0.0
  0
VERTEX
  5
198
100
AcDbEntity
  8
0
370
              25
  6
Continuous
 62
               7
100
AcDbVertex
100
AcDb2dVertex
 10
95.801243218059994
 20
85.186272329679994
 30
0.0
  0
VERTEX
  5
199
100
AcDbEntity
  8
0
370
              25
  6
Continuous
 62
               7
100
AcDbVertex
100
AcDb2dVertex
 10
95.772331060999988
 20
85.234282883899994
 30
0.0
  0
VERTEX
  5
19A
100
AcDbEntity
  8
0
370
              25
  6
Continuous
 62
               7
100
AcDbVertex
100
AcDb2dVertex
 10
95.720443572699992
 20
85.277189346219998
 30
0.0
  0
VERTEX
  5
19B
100
AcDbEntity
  8
0
370
              25
  6
Continuous
 62
               7
100
AcDbVertex
100
AcDb2dVertex
 10
95.648845285619998
 20
85.312294279819994
 30
0.0
  0
VERTEX
  5
19C
100
AcDbEntity
  8
0
370
              25
  6
Continuous
 62
               7
100
AcDbVertex
100
AcDb2dVertex
 10
95.562031560340003
 20
85.337392477019989
 30
0.0
  0
VERTEX
  5
19D
100
AcDbEntity
  8
0
370
              25
  6
Continuous
 62
               7
100
AcDbVertex
100
AcDb2dVertex
 10
95.465462487539995
 20
85.350905602139989
 30
0.0
  0
SEQEND
  5
19E
100
AcDbEntity
  8
0
370
              25
  6
Continuous
 62
               7
  0
ARC
  5
19F
100
AcDbEntity
  8
0
370
              25
  6
Continuous
 62
               7
100
AcDbCircle
 10
96.544045440860003
 20
86.107259845079994
 30
0.0
 40
1.3173507239454407
100
AcDbArc
 50
201.19485683699995
 51
215.03998577879997
  0
POLYLINE
  5
1A0
100
AcDbEntity
  8
0
370
              25
  6
Continuous
 62
               7
100
AcDb2dPolyline
 66
               1
 10
0.0
 20
0.0
 30
0.0
 75
               5
  0
VERTEX
  5
1A1
100
AcDbEntity
  8
0
370
              25
  6
Continuous
 62
               7
100
AcDbVertex
100
AcDb2dVertex
 10
95.31580524812
 20
85.630983708480002
 30
0.0
  0
VERTEX
  5
1A2
100
AcDbEntity
  8
0
370
              25
  6
Continuous
 62
               7
100
AcDbVertex
100
AcDb2dVertex
 10
95.38602976096
 20
85.666777144639994
 30
0.0
  0
VERTEX
  5
1A3
100
AcDbEntity
  8
0
370
              25
  6
Continuous
 62
               7
100
AcDbVertex
100
AcDb2dVertex
 10
95.436240582559989
 20
85.710179036499994
 30
0.0
  0
VERTEX
  5
1A4
100
AcDbEntity
  8
0
370
              25
  6
Continuous
 62
               7
100
AcDbVertex
100
AcDb2dVertex
 10
95.463280134779993
 20
85.758462285120004
 30
0.0
  0
VERTEX
  5
1A5
100
AcDbEntity
  8
0
370
              25
  6
Continuous
 62
               7
100
AcDbVertex
100
AcDb2dVertex
 10
95.465456759839995
 20
85.808589807419992
 30
0.0
  0
VERTEX
  5
1A6
100
AcDbEntity
  8
0
370
              25
  6
Continuous
 62
               7
100
AcDbVertex
100
AcDb2dVertex
 10
95.442627595440001
 20
85.857412943199989
 30
0.0
  0
VERTEX
  5
1A7
100
AcDbEntity
  8
0
370
              25
  6
Continuous
 62
               7
100
AcDbVertex
100
AcDb2dVertex
 10
95.396226613820005
 20
85.901863385159999
 30
0.0
  0
VERTEX
  5
1A8
100
AcDbEntity
  8
0
370
              25
  6
Continuous
 62
               7
100
AcDbVertex
100
AcDb2dVertex
 10
95.329173699919991
 20
85.939146386540003
 30
0.0
  0
VERTEX
  5
1A9
100
AcDbEntity
  8
0
370
              25
  6
Continuous
 62
               7
100
AcDbVertex
100
AcDb2dVertex
 10
95.245684006600001
 20
85.966918388400003
 30
0.0
  0
SEQEND
  5
1AA
100
AcDbEntity
  8
0
370
              25
  6
Continuous
 62
               7
  0
ARC
  5
1AB
100
AcDbEntity
  8
0
370
              25
  6
Continuous
 62
               7
100
AcDbCircle
 10
96.262155651579988
 20
86.005273912399986
 30
0.0
 40
1.0171950419899511
100
AcDbArc
 50
165.70630867320006
 51
182.16097266489959
  0
POLYLINE
  5
1AC
100
AcDbEntity
  8
0
370
              25
  6
Continuous
 62
               7
100
AcDb2dPolyline
 66
               1
 10
0.0
 20
0.0
 30
0.0
 75
               5
  0
VERTEX
  5
1AD
100
AcDbEntity
  8
0
370
              25
  6
Continuous
 62
               7
100
AcDbVertex
100
AcDb2dVertex
 10
95.276449995359997
 20
86.256411550839999
 30
0.0
  0
VERTEX
  5
1AE
100
AcDbEntity
  8
0
370
              25
  6
Continuous
 62
               7
100
AcDbVertex
100
AcDb2dVertex
 10
95.365357793159987
 20
86.279603594880001
 30
0.0
  0
VERTEX
  5
1AF
100
AcDbEntity
  8
0
370
              25
  6
Continuous
 62
               7
100
AcDbVertex
100
AcDb2dVertex
 10
95.439934336920004
 20
86.313123581179994
 30
0.0
  0
VERTEX
  5
1B0
100
AcDbEntity
  8
0
370
              25
  6
Continuous
 62
               7
100
AcDbVertex
100
AcDb2dVertex
 10
95.495492866899994
 20
86.354864706740003
 30
0.0
  0
VERTEX
  5
1B1
100
AcDbEntity
  8
0
370
              25
  6
Continuous
 62
               7
100
AcDbVertex
100
AcDb2dVertex
 10
95.52853998901999
 20
86.402203936419994
 30
0.0
  0
VERTEX
  5
1B2
100
AcDbEntity
  8
0
370
              25
  6
Continuous
 62
               7
100
AcDbVertex
100
AcDb2dVertex
 10
95.537002517179999
 20
86.452164923620003
 30
0.0
  0
VERTEX
  5
1B3
100
AcDbEntity
  8
0
370
              25
  6
Continuous
 62
               7
100
AcDbVertex
100
AcDb2dVertex
 10
95.520347678760004
 20
86.501607788919998
 30
0.0
  0
VERTEX
  5
1B4
100
AcDbEntity
  8
0
370
              25
  6
Continuous
 62
               7
100
AcDbVertex
100
AcDb2dVertex
 10
95.479617478279991
 20
86.547426518719988
 30
0.0
  0
VERTEX
  5
1B5
100
AcDbEntity
  8
0
370
              25
  6
Continuous
 62
               7
100
AcDbVertex
100
AcDb2dVertex
 10
95.41737777294
 20
86.586739566839995
 30
0.0
  0
SEQEND
  5
1B6
100
AcDbEntity
  8
0
370
              25
  6
Continuous
 62
               7
  0
ARC
  5
1B7
100
AcDbEntity
  8
0
370
              25
  6
Continuous
 62
               7
100
AcDbCircle
 10
96.81019664083999
 20
85.730485825959988
 30
0.0
 40
1.6349663201389943
100
AcDbArc
 50
136.43288158649986
 51
148.41833092359997
  0
POLYLINE
  5
1B8
100
AcDbEntity
  8
0
370
              25
  6
Continuous
 62
               7
100
AcDb2dPolyline
 66
               1
 10
0.0
 20
0.0
 30
0.0
 75
               5
  0
VERTEX
  5
1B9
100
AcDbEntity
  8
0
370
              25
  6
Continuous
 62
               7
100
AcDbVertex
100
AcDb2dVertex
 10
95.625553165579987
 20
86.85731088243999
 30
0.0
  0
VERTEX
  5
1BA
100
AcDbEntity
  8
0
370
              25
  6
Continuous
 62
               7
100
AcDbVertex
100
AcDb2dVertex
 10
95.724443866960002
 20
86.865630614339992
 30
0.0
  0
VERTEX
  5
1BB
100
AcDbEntity
  8
0
370
              25
  6
Continuous
 62
               7
100
AcDbVertex
100
AcDb2dVertex
 10
95.816086939959987
 20
86.885987246219997
 30
0.0
  0
VERTEX
  5
1BC
100
AcDbEntity
  8
0
370
              25
  6
Continuous
 62
               7
100
AcDbVertex
100
AcDb2dVertex
 10
95.894724389999993
 20
86.917100869539993
 30
0.0
  0
VERTEX
  5
1BD
100
AcDbEntity
  8
0
370
              25
  6
Continuous
 62
               7
100
AcDbVertex
100
AcDb2dVertex
 10
95.955413948580002
 20
86.957015933219992
 30
0.0
  0
VERTEX
  5
1BE
100
AcDbEntity
  8
0
370
              25
  6
Continuous
 62
               7
100
AcDbVertex
100
AcDb2dVertex
 10
95.994339047259999
 20
87.003224408240001
 30
0.0
  0
VERTEX
  5
1BF
100
AcDbEntity
  8
0
370
              25
  6
Continuous
 62
               7
100
AcDbVertex
100
AcDb2dVertex
 10
96.009053678739988
 20
87.052821946839998
 30
0.0
  0
VERTEX
  5
1C0
100
AcDbEntity
  8
0
370
              25
  6
Continuous
 62
               7
100
AcDbVertex
100
AcDb2dVertex
 10
95.998636978719986
 20
87.102690208799984
 30
0.0
  0
VERTEX
  5
1C1
100
AcDbEntity
  8
0
370
              25
  6
Continuous
 62
               7
100
AcDbVertex
100
AcDb2dVertex
 10
95.963738653799993
 20
87.149696365739999
 30
0.0
  0
SEQEND
  5
1C2
100
AcDbEntity
  8
0
370
              25
  6
Continuous
 62
               7
  0
ARC
  5
1C3
100
AcDbEntity
  8
0
370
              25
  6
Continuous
 62
               7
100
AcDbCircle
 10
97.674285496859994
 20
84.762165128619998
 30
0.0
 40
2.9370522494550513
100
AcDbArc
 50
123.06141323519994
 51
125.61970619410003
  0
ARC
  5
1C4
100
AcDbEntity
  8
0
370
              25
  6
Continuous
 62
               7
100
AcDbCircle
 10
96.447752491459994
 20
87.955501043179993
 30
0.0
 40
0.5926709289024716
100
AcDbArc
 50
258.43633969780069
 51
304.12790523629985
  0
LINE
  5
1C5
100
AcDbEntity
  8
0
370
              25
  6
Continuous
 62
               7
100
AcDbLine
 10
101.7095898621
 20
85.812607904539988
 30
0.0
 11
96.179508704859998
 21
87.411686499620004
 31
0.0
  0
POLYLINE
  5
1C6
100
AcDbEntity
  8
0
370
              25
  6
Continuous
 62
               7
100
AcDb2dPolyline
 66
               1
 10
0.0
 20
0.0
 30
0.0
 75
               5
  0
VERTEX
  5
1C7
100
AcDbEntity
  8
0
370
              25
  6
Continuous
 62
               7
100
AcDbVertex
100
AcDb2dVertex
 10
96.179508704859998
 20
87.411686499620004
 30
0.0
  0
VERTEX
  5
1C8
100
AcDbEntity
  8
0
370
              25
  6
Continuous
 62
               7
100
AcDbVertex
100
AcDb2dVertex
 10
95.995021174419989
 20
86.859441381099998
 30
0.0
  0
VERTEX
  5
1C9
100
AcDbEntity
  8
0
370
              25
  6
Continuous
 62
               7
100
AcDbVertex
100
AcDb2dVertex
 10
96.196349080119987
 20
86.308668703119992
 30
0.0
  0
VERTEX
  5
1CA
100
AcDbEntity
  8
0
370
              25
  6
Continuous
 62
               7
100
AcDbVertex
100
AcDb2dVertex
 10
96.759591634100005
 20
85.824753793379998
 30
0.0
  0
VERTEX
  5
1CB
100
AcDbEntity
  8
0
370
              25
  6
Continuous
 62
               7
100
AcDbVertex
100
AcDb2dVertex
 10
97.617881682819998
 20
85.465145335559995
 30
0.0
  0
VERTEX
  5
1CC
100
AcDbEntity
  8
0
370
              25
  6
Continuous
 62
               7
100
AcDbVertex
100
AcDb2dVertex
 10
98.669326691939986
 20
85.272534580319999
 30
0.0
  0
VERTEX
  5
1CD
100
AcDbEntity
  8
0
370
              25
  6
Continuous
 62
               7
100
AcDbVertex
100
AcDb2dVertex
 10
99.789106509779998
 20
85.269786688940002
 30
0.0
  0
VERTEX
  5
1CE
100
AcDbEntity
  8
0
370
              25
  6
Continuous
 62
               7
100
AcDbVertex
100
AcDb2dVertex
 10
100.84428339103999
 20
85.457228396859989
 30
0.0
  0
VERTEX
  5
1CF
100
AcDbEntity
  8
0
370
              25
  6
Continuous
 62
               7
100
AcDbVertex
100
AcDb2dVertex
 10
101.7095898621
 20
85.812607904539988
 30
0.0
  0
SEQEND
  5
1D0
100
AcDbEntity
  8
0
370
              25
  6
Continuous
 62
               7
  0
LINE
  5
1D1
100
AcDbEntity
  8
0
370
              25
  6
Continuous
 62
               7
100
AcDbLine
 10
101.7095898621
 20
85.812607904539988
 30
0.0
 11
101.7095898621
 21
84.946582356939999
 31
0.0
  0
LINE
  5
1D2
100
AcDbEntity
  8
0
370
              25
  6
Continuous
 62
               7
100
AcDbLine
 10
99.994601077200002
 20
84.041259542239999
 30
0.0
 11
99.994601077200002
 21
73.215942640719987
 31
0.0
  0
ARC
  5
1D3
100
AcDbEntity
  8
0
370
              25
  6
Continuous
 62
               7
100
AcDbCircle
 10
99.686547438799991
 20
72.664139205340007
 30
0.0
 40
0.6319684122055876
100
AcDbArc
 50
60.826819283000489
 51
125.14771530500052
  0
LINE
  5
1D4
100
AcDbEntity
  8
0
370
              25
  6
Continuous
 62
               7
100
AcDbLine
 10
99.3227318215
 20
73.18088118176
 30
0.0
 11
99.3227318215
 21
84.006198083279997
 31
0.0
  0
LINE
  5
1D5
100
AcDbEntity
  8
0
370
              25
  6
Continuous
 62
               7
100
AcDbLine
 10
98.743743347779997
 20
84.021581430719991
 30
0.0
 11
98.743743347779997
 21
73.196264526660002
 31
0.0
  0
ARC
  5
1D6
100
AcDbEntity
  8
0
370
              25
  6
Continuous
 62
               7
100
AcDbCircle
 10
99.244662818379993
 20
81.146059368719989
 30
0.0
 40
7.9655607667962034
100
AcDbArc
 50
266.39453860890001
 51
270.56155443829994
  0
ARC
  5
1D7
100
AcDbEntity
  8
0
370
              25
  6
Continuous
 62
               7
100
AcDbCircle
 10
98.359262193959992
 20
72.7237688397
 30
0.0
 40
0.6091616643195427
100
AcDbArc
 50
50.863918100400596
 51
116.95997108139997
  0
LINE
  5
1D8
100
AcDbEntity
  8
0
370
              25
  6
Continuous
 62
               7
100
AcDbLine
 10
98.083087849179989
 20
73.266728934880007
 30
0.0
 11
98.083087849179989
 21
84.092045836400004
 31
0.0
  0
LINE
  5
1D9
100
AcDbEntity
  8
0
370
              25
  6
Continuous
 62
               7
100
AcDbLine
 10
100.55475737369999
 20
73.290771101679994
 30
0.0
 11
100.55475737369999
 21
84.116088003199991
 31
0.0
  0
ARC
  5
1DA
100
AcDbEntity
  8
0
370
              25
  6
Continuous
 62
               7
100
AcDbCircle
 10
99.295567230159989
 20
80.582864213679997
 30
0.0
 40
7.4000122828499242
100
AcDbArc
 50
275.42046344019997
 51
279.79715376569999
  0
LINE
  5
1DB
100
AcDbEntity
  8
0
370
              25
  6
Continuous
 62
               7
100
AcDbLine
 10
101.17207240271999
 20
84.253243553120001
 30
0.0
 11
101.17207240271999
 21
73.427926651600004
 31
0.0
  0
ARC
  5
1DC
100
AcDbEntity
  8
0
370
              25
  6
Continuous
 62
               7
100
AcDbCircle
 10
100.95525654983999
 20
72.94598435412
 30
0.0
 40
0.5284671146830751
100
AcDbArc
 50
65.778007026600946
 51
139.27508564209933
  0
LINE
  5
1DD
100
AcDbEntity
  8
0
370
              25
  6
Continuous
 62
               7
100
AcDbLine
 10
97.541946876599994
 20
84.196133862919993
 30
0.0
 11
97.541946876599994
 21
73.37081695885999
 31
0.0
  0
ARC
  5
1DE
100
AcDbEntity
  8
0
370
              25
  6
Continuous
 62
               7
100
AcDbCircle
 10
99.107282130479987
 20
80.050097372179991
 30
0.0
 40
6.8602522763505469
100
AcDbArc
 50
256.81037395200002
 51
261.4139868316999
  0
LINE
  5
1DF
100
AcDbEntity
  8
0
370
              25
  6
Continuous
 62
               7
100
AcDbLine
 10
101.65856657577999
 20
73.585641423799999
 30
0.0
 11
101.65856657577999
 21
84.410958325319996
 31
0.0
  0
ARC
  5
1E0
100
AcDbEntity
  8
0
370
              25
  6
Continuous
 62
               7
100
AcDbCircle
 10
99.726168891179995
 20
78.717214945239988
 30
0.0
 40
5.4833573314737354
100
AcDbArc
 50
285.28909459039994
 51
290.63487881060001
  0
POLYLINE
  5
1E1
100
AcDbEntity
  8
0
370
              25
  6
Continuous
 62
               7
100
AcDb2dPolyline
 66
               1
 10
0.0
 20
0.0
 30
0.0
 75
               5
  0
VERTEX
  5
1E2
100
AcDbEntity
  8
0
370
              25
  6
Continuous
 62
               7
100
AcDbVertex
100
AcDb2dVertex
 10
97.541946876599994
 20
73.37081695885999
 30
0.0
  0
VERTEX
  5
1E3
100
AcDbEntity
  8
0
370
              25
  6
Continuous
 62
               7
100
AcDbVertex
100
AcDb2dVertex
 10
97.525307014020001
 20
73.420261617400001
 30
0.0
  0
VERTEX
  5
1E4
100
AcDbEntity
  8
0
370
              25
  6
Continuous
 62
               7
100
AcDbVertex
100
AcDb2dVertex
 10
97.484593155899987
 20
73.466083326619994
 30
0.0
  0
VERTEX
  5
1E5
100
AcDbEntity
  8
0
370
              25
  6
Continuous
 62
               7
100
AcDbVertex
100
AcDb2dVertex
 10
97.422364476699997
 20
73.505402196419993
 30
0.0
  0
VERTEX
  5
1E6
100
AcDbEntity
  8
0
370
              25
  6
Continuous
 62
               7
100
AcDbVertex
100
AcDb2dVertex
 10
97.34253337397999
 20
73.535746585819993
 30
0.0
  0
VERTEX
  5
1E7
100
AcDbEntity
  8
0
370
              25
  6
Continuous
 62
               7
100
AcDbVertex
100
AcDb2dVertex
 10
97.250119187460001
 20
73.555208606839997
 30
0.0
  0
VERTEX
  5
1E8
100
AcDbEntity
  8
0
370
              25
  6
Continuous
 62
               7
100
AcDbVertex
100
AcDb2dVertex
 10
97.150925268500004
 20
73.562566796339993
 30
0.0
  0
VERTEX
  5
1E9
100
AcDbEntity
  8
0
370
              25
  6
Continuous
 62
               7
100
AcDbVertex
100
AcDb2dVertex
 10
97.051187517759999
 20
73.557357992939998
 30
0.0
  0
VERTEX
  5
1EA
100
AcDbEntity
  8
0
370
              25
  6
Continuous
 62
               7
100
AcDbVertex
100
AcDb2dVertex
 10
96.957176473879997
 20
73.539909003199995
 30
0.0
  0
SEQEND
  5
1EB
100
AcDbEntity
  8
0
370
              25
  6
Continuous
 62
               7
  0
LINE
  5
1EC
100
AcDbEntity
  8
0
370
              25
  6
Continuous
 62
               7
100
AcDbLine
 10
96.957176473879997
 20
73.539909003199995
 30
0.0
 11
96.957176473879997
 21
84.365225904719992
 31
0.0
  0
ARC
  5
1ED
100
AcDbEntity
  8
0
370
              25
  6
Continuous
 62
               7
100
AcDbCircle
 10
101.87856378628
 20
73.540512189699996
 30
0.0
 40
0.2466865273196466
100
AcDbArc
 50
106.83851746639992
 51
153.10177924919992
  0
LINE
  5
1EE
100
AcDbEntity
  8
0
370
              25
  6
Continuous
 62
               7
100
AcDbLine
 10
96.506849688480003
 20
84.547830939560001
 30
0.0
 11
96.506849688480003
 21
73.722514038040003
 31
0.0
  0
ARC
  5
1EF
100
AcDbEntity
  8
0
370
              25
  6
Continuous
 62
               7
100
AcDbCircle
 10
98.497606593419988
 20
77.985385253199993
 30
0.0
 40
4.7048043582209491
100
AcDbArc
 50
244.96746900639999
 51
250.88796353229995
  0
ARC
  5
1F0
100
AcDbEntity
  8
0
370
              25
  6
Continuous
 62
               7
100
AcDbCircle
 10
96.151480988499998
 20
73.493667002719988
 30
0.0
 40
0.4895763745871337
100
AcDbArc
 50
43.458745888100488
 51
101.34153474639919
  0
LINE
  5
1F1
100
AcDbEntity
  8
0
370
              25
  6
Continuous
 62
               7
100
AcDbLine
 10
96.055202387559987
 20
73.973683103900001
 30
0.0
 11
96.055202387559987
 21
84.799000005419998
 31
0.0
  0
LINE
  5
1F2
100
AcDbEntity
  8
0
370
              25
  6
Continuous
 62
               7
100
AcDbLine
 10
95.739771385200001
 20
85.042247110999995
 30
0.0
 11
95.739771385200001
 21
74.216930209479997
 31
0.0
  0
ARC
  5
1F3
100
AcDbEntity
  8
0
370
              25
  6
Continuous
 62
               7
100
AcDbCircle
 10
97.476354475400001
 20
76.142705280960001
 30
0.0
 40
2.5931314017894804
100
AcDbArc
 50
227.95718619020008
 51
236.76702123050012
  0
ARC
  5
1F4
100
AcDbEntity
  8
0
370
              25
  6
Continuous
 62
               7
100
AcDbCircle
 10
95.452837371819996
 20
74.009907539959997
 30
0.0
 40
0.5158356842943962
100
AcDbArc
 50
56.202708932200437
 51
88.597541611700365
  0
LINE
  5
1F5
100
AcDbEntity
  8
0
370
              25
  6
Continuous
 62
               7
100
AcDbLine
 10
95.465462487539995
 20
74.525588700619991
 30
0.0
 11
95.465462487539995
 21
85.350905602139989
 31
0.0
  0
ARC
  5
1F6
100
AcDbEntity
  8
0
370
              25
  6
Continuous
 62
               7
100
AcDbCircle
 10
99.239284124540006
 20
83.306875600799998
 30
0.0
 40
5.2373736568308882
100
AcDbArc
 50
60.640486506100046
 51
118.00275893280001
  0
LINE
  5
1F7
100
AcDbEntity
  8
0
370
              25
  6
Continuous
 62
               7
100
AcDbLine
 10
96.780263459659992
 20
87.931083662500001
 30
0.0
 11
96.780263459659992
 21
87.237972544279998
 31
0.0
  0
LINE
  5
1F8
100
AcDbEntity
  8
0
370
              25
  6
Continuous
 62
               7
100
AcDbLine
 10
96.780263459659992
 20
87.931083662500001
 30
0.0
 11
101.80710485122
 21
86.477521918879987
 31
0.0
  0
LINE
  5
1F9
100
AcDbEntity
  8
0
370
              25
  6
Continuous
 62
               7
100
AcDbLine
 10
95.31580524812
 20
85.630983708480002
 30
0.0
 11
95.31580524812
 21
74.805666804419999
 31
0.0
  0
ARC
  5
1FA
100
AcDbEntity
  8
0
370
              25
  6
Continuous
 62
               7
100
AcDbCircle
 10
96.544045440860003
 20
75.281942943559997
 30
0.0
 40
1.3173507239449553
100
AcDbArc
 50
201.19485683700015
 51
215.03998577880029
  0
LINE
  5
1FB
100
AcDbEntity
  8
0
370
              25
  6
Continuous
 62
               7
100
AcDbLine
 10
95.315807762719999
 20
75.119357050800005
 30
0.0
 11
95.245684006600001
 21
75.141601486879992
 31
0.0
  0
LINE
  5
1FC
100
AcDbEntity
  8
0
370
              25
  6
Continuous
 62
               7
100
AcDbLine
 10
95.245684006600001
 20
75.141601486879992
 30
0.0
 11
95.245684006600001
 21
85.966918388400003
 31
0.0
  0
LINE
  5
1FD
100
AcDbEntity
  8
0
370
              25
  6
Continuous
 62
               7
100
AcDbLine
 10
95.41737777294
 20
86.30111797907999
 30
0.0
 11
95.41737777294
 21
86.586739566839995
 31
0.0
  0
LINE
  5
1FE
100
AcDbEntity
  8
0
370
              25
  6
Continuous
 62
               7
100
AcDbLine
 10
95.963738653799993
 20
86.964588529199986
 30
0.0
 11
95.963738653799993
 21
87.149696365739999
 31
0.0
  0
POLYLINE
  5
1FF
100
AcDbEntity
  8
0
370
              25
  6
Continuous
 62
               7
100
AcDb2dPolyline
 66
               1
 10
0.0
 20
0.0
 30
0.0
 75
               5
  0
VERTEX
  5
200
100
AcDbEntity
  8
0
370
              25
  6
Continuous
 62
               7
100
AcDbVertex
100
AcDb2dVertex
 10
161.76414713653998
 20
92.461913338439999
 30
0.0
  0
VERTEX
  5
201
100
AcDbEntity
  8
0
370
              25
  6
Continuous
 62
               7
100
AcDbVertex
100
AcDb2dVertex
 10
162.77583632727999
 20
92.277799439459997
 30
0.0
  0
VERTEX
  5
202
100
AcDbEntity
  8
0
370
              25
  6
Continuous
 62
               7
100
AcDbVertex
100
AcDb2dVertex
 10
163.85245621365999
 20
92.277800567219998
 30
0.0
  0
VERTEX
  5
203
100
AcDbEntity
  8
0
370
              25
  6
Continuous
 62
               7
100
AcDbVertex
100
AcDb2dVertex
 10
164.86414712906
 20
92.46191343241999
 30
0.0
  0
VERTEX
  5
204
100
AcDbEntity
  8
0
370
              25
  6
Continuous
 62
               7
100
AcDbVertex
100
AcDb2dVertex
 10
165.68888380063999
 20
92.807930954759996
 30
0.0
  0
VERTEX
  5
205
100
AcDbEntity
  8
0
370
              25
  6
Continuous
 62
               7
100
AcDbVertex
100
AcDb2dVertex
 10
166.22719383653998
 20
93.274121119659995
 30
0.0
  0
VERTEX
  5
206
100
AcDbEntity
  8
0
370
              25
  6
Continuous
 62
               7
100
AcDbVertex
100
AcDb2dVertex
 10
166.41414542606
 20
93.80425133448
 30
0.0
  0
SEQEND
  5
207
100
AcDbEntity
  8
0
370
              25
  6
Continuous
 62
               7
  0
ARC
  5
208
100
AcDbEntity
  8
0
370
              25
  6
Continuous
 62
               7
100
AcDbCircle
 10
161.94653733563999
 20
94.238581771379998
 30
0.0
 40
1.786005852804172
100
AcDbArc
 50
194.07457108359998
 51
264.13863157150047
  0
POLYLINE
  5
209
100
AcDbEntity
  8
0
370
              25
  6
Continuous
 62
               7
100
AcDb2dPolyline
 66
               1
 10
0.0
 20
0.0
 30
0.0
 75
               5
  0
VERTEX
  5
20A
100
AcDbEntity
  8
0
370
              25
  6
Continuous
 62
               7
100
AcDbVertex
100
AcDb2dVertex
 10
83.314145243360002
 20
47.985261893139999
 30
0.0
  0
VERTEX
  5
20B
100
AcDbEntity
  8
0
370
              25
  6
Continuous
 62
               7
100
AcDbVertex
100
AcDb2dVertex
 10
82.222597594099994
 20
45.877708028500003
 30
0.0
  0
VERTEX
  5
20C
100
AcDbEntity
  8
0
370
              25
  6
Continuous
 62
               7
100
AcDbVertex
100
AcDb2dVertex
 10
81.405191641919998
 20
43.616177664599995
 30
0.0
  0
VERTEX
  5
20D
100
AcDbEntity
  8
0
370
              25
  6
Continuous
 62
               7
100
AcDbVertex
100
AcDb2dVertex
 10
80.936422076539984
 20
41.329997692899994
 30
0.0
  0
VERTEX
  5
20E
100
AcDbEntity
  8
0
370
              25
  6
Continuous
 62
               7
100
AcDbVertex
100
AcDb2dVertex
 10
80.819037536099998
 20
39.03258281606
 30
0.0
  0
VERTEX
  5
20F
100
AcDbEntity
  8
0
370
              25
  6
Continuous
 62
               7
100
AcDbVertex
100
AcDb2dVertex
 10
81.05373105452
 20
36.737415272799993
 30
0.0
  0
VERTEX
  5
210
100
AcDbEntity
  8
0
370
              25
  6
Continuous
 62
               7
100
AcDbVertex
100
AcDb2dVertex
 10
81.639119025219998
 20
34.45796701738
 30
0.0
  0
VERTEX
  5
211
100
AcDbEntity
  8
0
370
              25
  6
Continuous
 62
               7
100
AcDbVertex
100
AcDb2dVertex
 10
82.571770014880002
 20
32.2076129151
 30
0.0
  0
VERTEX
  5
212
100
AcDbEntity
  8
0
370
              25
  6
Continuous
 62
               7
100
AcDbVertex
100
AcDb2dVertex
 10
83.846214260499991
 20
29.999557006100005
 30
0.0
  0
VERTEX
  5
213
100
AcDbEntity
  8
0
370
              25
  6
Continuous
 62
               7
100
AcDbVertex
100
AcDb2dVertex
 10
85.454963356939999
 20
27.846760166159996
 30
0.0
  0
VERTEX
  5
214
100
AcDbEntity
  8
0
370
              25
  6
Continuous
 62
               7
100
AcDbVertex
100
AcDb2dVertex
 10
87.388586657579992
 20
25.761853502859992
 30
0.0
  0
VERTEX
  5
215
100
AcDbEntity
  8
0
370
              25
  6
Continuous
 62
               7
100
AcDbVertex
100
AcDb2dVertex
 10
89.635730098259998
 20
23.757072732140003
 30
0.0
  0
VERTEX
  5
216
100
AcDbEntity
  8
0
370
              25
  6
Continuous
 62
               7
100
AcDbVertex
100
AcDb2dVertex
 10
92.183209095240002
 20
21.844184012840003
 30
0.0
  0
VERTEX
  5
217
100
AcDbEntity
  8
0
370
              25
  6
Continuous
 62
               7
100
AcDbVertex
100
AcDb2dVertex
 10
95.016073289799991
 20
20.034411500819999
 30
0.0
  0
VERTEX
  5
218
100
AcDbEntity
  8
0
370
              25
  6
Continuous
 62
               7
100
AcDbVertex
100
AcDb2dVertex
 10
98.117697485319994
 20
18.338374537299998
 30
0.0
  0
VERTEX
  5
219
100
AcDbEntity
  8
0
370
              25
  6
Continuous
 62
               7
100
AcDbVertex
100
AcDb2dVertex
 10
101.46988485001999
 20
16.766029889259997
 30
0.0
  0
VERTEX
  5
21A
100
AcDbEntity
  8
0
370
              25
  6
Continuous
 62
               7
100
AcDbVertex
100
AcDb2dVertex
 10
105.05295727237998
 20
15.326600499899996
 30
0.0
  0
VERTEX
  5
21B
100
AcDbEntity
  8
0
370
              25
  6
Continuous
 62
               7
100
AcDbVertex
100
AcDb2dVertex
 10
108.84589331616
 20
14.028537817900002
 30
0.0
  0
VERTEX
  5
21C
100
AcDbEntity
  8
0
370
              25
  6
Continuous
 62
               7
100
AcDbVertex
100
AcDb2dVertex
 10
112.82643003884
 20
12.879455843779994
 30
0.0
  0
VERTEX
  5
21D
100
AcDbEntity
  8
0
370
              25
  6
Continuous
 62
               7
100
AcDbVertex
100
AcDb2dVertex
 10
116.97120857425999
 20
11.886097700959994
 30
0.0
  0
VERTEX
  5
21E
100
AcDbEntity
  8
0
370
              25
  6
Continuous
 62
               7
100
AcDbVertex
100
AcDb2dVertex
 10
121.25590962129999
 20
11.054296524839998
 30
0.0
  0
VERTEX
  5
21F
100
AcDbEntity
  8
0
370
              25
  6
Continuous
 62
               7
100
AcDbVertex
100
AcDb2dVertex
 10
125.6553841218
 20
10.388929140819997
 30
0.0
  0
VERTEX
  5
220
100
AcDbEntity
  8
0
370
              25
  6
Continuous
 62
               7
100
AcDbVertex
100
AcDb2dVertex
 10
130.14381841136
 20
9.8939049492600049
 30
0.0
  0
VERTEX
  5
221
100
AcDbEntity
  8
0
370
              25
  6
Continuous
 62
               7
100
AcDbVertex
100
AcDb2dVertex
 10
134.69486845072001
 20
9.572125026400002
 30
0.0
  0
VERTEX
  5
222
100
AcDbEntity
  8
0
370
              25
  6
Continuous
 62
               7
100
AcDbVertex
100
AcDb2dVertex
 10
139.28182840048001
 20
9.4254786216999946
 30
0.0
  0
VERTEX
  5
223
100
AcDbEntity
  8
0
370
              25
  6
Continuous
 62
               7
100
AcDbVertex
100
AcDb2dVertex
 10
143.87778227433998
 20
9.4548273565000045
 30
0.0
  0
VERTEX
  5
224
100
AcDbEntity
  8
0
370
              25
  6
Continuous
 62
               7
100
AcDbVertex
100
AcDb2dVertex
 10
148.45575819329997
 20
9.6599972357199988
 30
0.0
  0
VERTEX
  5
225
100
AcDbEntity
  8
0
370
              25
  6
Continuous
 62
               7
100
AcDbVertex
100
AcDb2dVertex
 10
152.98888624919999
 20
10.039786864760003
 30
0.0
  0
VERTEX
  5
226
100
AcDbEntity
  8
0
370
              25
  6
Continuous
 62
               7
100
AcDbVertex
100
AcDb2dVertex
 10
157.4505733888
 20
10.591964271959995
 30
0.0
  0
VERTEX
  5
227
100
AcDbEntity
  8
0
370
              25
  6
Continuous
 62
               7
100
AcDbVertex
100
AcDb2dVertex
 10
161.81462652503998
 20
11.313291599940001
 30
0.0
  0
VERTEX
  5
228
100
AcDbEntity
  8
0
370
              25
  6
Continuous
 62
               7
100
AcDbVertex
100
AcDb2dVertex
 10
166.05544070278
 20
12.199535298620006
 30
0.0
  0
VERTEX
  5
229
100
AcDbEntity
  8
0
370
              25
  6
Continuous
 62
               7
100
AcDbVertex
100
AcDb2dVertex
 10
170.14813425981998
 20
13.245493795979996
 30
0.0
  0
VERTEX
  5
22A
100
AcDbEntity
  8
0
370
              25
  6
Continuous
 62
               7
100
AcDbVertex
100
AcDb2dVertex
 10
174.06868128028
 20
14.445030231039993
 30
0.0
  0
VERTEX
  5
22B
100
AcDbEntity
  8
0
370
              25
  6
Continuous
 62
               7
100
AcDbVertex
100
AcDb2dVertex
 10
177.79407636440001
 20
15.791103393599997
 30
0.0
  0
VERTEX
  5
22C
100
AcDbEntity
  8
0
370
              25
  6
Continuous
 62
               7
100
AcDbVertex
100
AcDb2dVertex
 10
181.30245888025999
 20
17.275815735319995
 30
0.0
  0
VERTEX
  5
22D
100
AcDbEntity
  8
0
370
              25
  6
Continuous
 62
               7
100
AcDbVertex
100
AcDb2dVertex
 10
184.57324086801998
 20
18.890453341699995
 30
0.0
  0
VERTEX
  5
22E
100
AcDbEntity
  8
0
370
              25
  6
Continuous
 62
               7
100
AcDbVertex
100
AcDb2dVertex
 10
187.5872239739
 20
20.625542510580004
 30
0.0
  0
VERTEX
  5
22F
100
AcDbEntity
  8
0
370
              25
  6
Continuous
 62
               7
100
AcDbVertex
100
AcDb2dVertex
 10
190.32672833993999
 20
22.470898032459999
 30
0.0
  0
VERTEX
  5
230
100
AcDbEntity
  8
0
370
              25
  6
Continuous
 62
               7
100
AcDbVertex
100
AcDb2dVertex
 10
192.77566946947999
 20
24.415693495159999
 30
0.0
  0
VERTEX
  5
231
100
AcDbEntity
  8
0
370
              25
  6
Continuous
 62
               7
100
AcDbVertex
100
AcDb2dVertex
 10
194.9196834517
 20
26.448513838959997
 30
0.0
  0
VERTEX
  5
232
100
AcDbEntity
  8
0
370
              25
  6
Continuous
 62
               7
100
AcDbVertex
100
AcDb2dVertex
 10
196.74618079184
 20
28.557431787740001
 30
0.0
  0
VERTEX
  5
233
100
AcDbEntity
  8
0
370
              25
  6
Continuous
 62
               7
100
AcDbVertex
100
AcDb2dVertex
 10
198.24445183643999
 20
30.73006933984
 30
0.0
  0
VERTEX
  5
234
100
AcDbEntity
  8
0
370
              25
  6
Continuous
 62
               7
100
AcDbVertex
100
AcDb2dVertex
 10
199.40569521371998
 20
32.953678291139994
 30
0.0
  0
VERTEX
  5
235
100
AcDbEntity
  8
0
370
              25
  6
Continuous
 62
               7
100
AcDbVertex
100
AcDb2dVertex
 10
200.22310116335998
 20
35.21520865250001
 30
0.0
  0
VERTEX
  5
236
100
AcDbEntity
  8
0
370
              25
  6
Continuous
 62
               7
100
AcDbVertex
100
AcDb2dVertex
 10
200.69187073127998
 20
37.501388624200004
 30
0.0
  0
VERTEX
  5
237
100
AcDbEntity
  8
0
370
              25
  6
Continuous
 62
               7
100
AcDbVertex
100
AcDb2dVertex
 10
200.80925527171999
 20
39.798803501039998
 30
0.0
  0
VERTEX
  5
238
100
AcDbEntity
  8
0
370
              25
  6
Continuous
 62
               7
100
AcDbVertex
100
AcDb2dVertex
 10
200.57456175329997
 20
42.093971044300005
 30
0.0
  0
VERTEX
  5
239
100
AcDbEntity
  8
0
370
              25
  6
Continuous
 62
               7
100
AcDbVertex
100
AcDb2dVertex
 10
199.98917378005999
 20
44.373419299719998
 30
0.0
  0
VERTEX
  5
23A
100
AcDbEntity
  8
0
370
              25
  6
Continuous
 62
               7
100
AcDbVertex
100
AcDb2dVertex
 10
199.05652279039998
 20
46.623773401999998
 30
0.0
  0
VERTEX
  5
23B
100
AcDbEntity
  8
0
370
              25
  6
Continuous
 62
               7
100
AcDbVertex
100
AcDb2dVertex
 10
198.31414669323999
 20
47.985260463119999
 30
0.0
  0
SEQEND
  5
23C
100
AcDbEntity
  8
0
370
              25
  6
Continuous
 62
               7
  0
POLYLINE
  5
23D
100
AcDbEntity
  8
0
370
              25
  6
Continuous
 62
               7
100
AcDb2dPolyline
 66
               1
 10
0.0
 20
0.0
 30
0.0
 75
               5
  0
VERTEX
  5
23E
100
AcDbEntity
  8
0
370
              25
  6
Continuous
 62
               7
100
AcDbVertex
100
AcDb2dVertex
 10
80.81414819103999
 20
36.817616392559998
 30
0.0
  0
VERTEX
  5
23F
100
AcDbEntity
  8
0
370
              25
  6
Continuous
 62
               7
100
AcDbVertex
100
AcDb2dVertex
 10
80.819037536099998
 20
36.434506180880007
 30
0.0
  0
VERTEX
  5
240
100
AcDbEntity
  8
0
370
              25
  6
Continuous
 62
               7
100
AcDbVertex
100
AcDb2dVertex
 10
81.05373105452
 20
34.139338635079994
 30
0.0
  0
VERTEX
  5
241
100
AcDbEntity
  8
0
370
              25
  6
Continuous
 62
               7
100
AcDbVertex
100
AcDb2dVertex
 10
81.639119025219998
 20
31.859890379660001
 30
0.0
  0
VERTEX
  5
242
100
AcDbEntity
  8
0
370
              25
  6
Continuous
 62
               7
100
AcDbVertex
100
AcDb2dVertex
 10
82.571770014880002
 20
29.609536277380002
 30
0.0
  0
VERTEX
  5
243
100
AcDbEntity
  8
0
370
              25
  6
Continuous
 62
               7
100
AcDbVertex
100
AcDb2dVertex
 10
83.846214260499991
 20
27.401480370919998
 30
0.0
  0
VERTEX
  5
244
100
AcDbEntity
  8
0
370
              25
  6
Continuous
 62
               7
100
AcDbVertex
100
AcDb2dVertex
 10
85.454963356939999
 20
25.248683528439997
 30
0.0
  0
VERTEX
  5
245
100
AcDbEntity
  8
0
370
              25
  6
Continuous
 62
               7
100
AcDbVertex
100
AcDb2dVertex
 10
87.388586657579992
 20
23.163776867679999
 30
0.0
  0
VERTEX
  5
246
100
AcDbEntity
  8
0
370
              25
  6
Continuous
 62
               7
100
AcDbVertex
100
AcDb2dVertex
 10
89.635730098259998
 20
21.158996094420004
 30
0.0
  0
VERTEX
  5
247
100
AcDbEntity
  8
0
370
              25
  6
Continuous
 62
               7
100
AcDbVertex
100
AcDb2dVertex
 10
92.183209095240002
 20
19.24610737511999
 30
0.0
  0
VERTEX
  5
248
100
AcDbEntity
  8
0
370
              25
  6
Continuous
 62
               7
100
AcDbVertex
100
AcDb2dVertex
 10
95.016073289799991
 20
17.436334863100001
 30
0.0
  0
VERTEX
  5
249
100
AcDbEntity
  8
0
370
              25
  6
Continuous
 62
               7
100
AcDbVertex
100
AcDb2dVertex
 10
98.117697485319994
 20
15.74029789958
 30
0.0
  0
VERTEX
  5
24A
100
AcDbEntity
  8
0
370
              25
  6
Continuous
 62
               7
100
AcDbVertex
100
AcDb2dVertex
 10
101.46988485001999
 20
14.167953251539998
 30
0.0
  0
VERTEX
  5
24B
100
AcDbEntity
  8
0
370
              25
  6
Continuous
 62
               7
100
AcDbVertex
100
AcDb2dVertex
 10
105.05295727237998
 20
12.728523862179998
 30
0.0
  0
VERTEX
  5
24C
100
AcDbEntity
  8
0
370
              25
  6
Continuous
 62
               7
100
AcDbVertex
100
AcDb2dVertex
 10
108.84589331616
 20
11.430461180180004
 30
0.0
  0
VERTEX
  5
24D
100
AcDbEntity
  8
0
370
              25
  6
Continuous
 62
               7
100
AcDbVertex
100
AcDb2dVertex
 10
112.82643003884
 20
10.281379206059995
 30
0.0
  0
VERTEX
  5
24E
100
AcDbEntity
  8
0
370
              25
  6
Continuous
 62
               7
100
AcDbVertex
100
AcDb2dVertex
 10
116.97120857425999
 20
9.2880210632399951
 30
0.0
  0
VERTEX
  5
24F
100
AcDbEntity
  8
0
370
              25
  6
Continuous
 62
               7
100
AcDbVertex
100
AcDb2dVertex
 10
121.25590962129999
 20
8.4562198871199996
 30
0.0
  0
VERTEX
  5
250
100
AcDbEntity
  8
0
370
              25
  6
Continuous
 62
               7
100
AcDbVertex
100
AcDb2dVertex
 10
125.6553841218
 20
7.7908525030999982
 30
0.0
  0
VERTEX
  5
251
100
AcDbEntity
  8
0
370
              25
  6
Continuous
 62
               7
100
AcDbVertex
100
AcDb2dVertex
 10
130.14381841136
 20
7.2958283115400064
 30
0.0
  0
VERTEX
  5
252
100
AcDbEntity
  8
0
370
              25
  6
Continuous
 62
               7
100
AcDbVertex
100
AcDb2dVertex
 10
134.69486845072001
 20
6.9740483886800035
 30
0.0
  0
VERTEX
  5
253
100
AcDbEntity
  8
0
370
              25
  6
Continuous
 62
               7
100
AcDbVertex
100
AcDb2dVertex
 10
139.28182840048001
 20
6.8274019865200017
 30
0.0
  0
VERTEX
  5
254
100
AcDbEntity
  8
0
370
              25
  6
Continuous
 62
               7
100
AcDbVertex
100
AcDb2dVertex
 10
143.87778227433998
 20
6.8567507187800061
 30
0.0
  0
VERTEX
  5
255
100
AcDbEntity
  8
0
370
              25
  6
Continuous
 62
               7
100
AcDbVertex
100
AcDb2dVertex
 10
148.45575819329997
 20
7.0619205980000004
 30
0.0
  0
VERTEX
  5
256
100
AcDbEntity
  8
0
370
              25
  6
Continuous
 62
               7
100
AcDbVertex
100
AcDb2dVertex
 10
152.98888624919999
 20
7.4417102270400051
 30
0.0
  0
VERTEX
  5
257
100
AcDbEntity
  8
0
370
              25
  6
Continuous
 62
               7
100
AcDbVertex
100
AcDb2dVertex
 10
157.4505733888
 20
7.9938876342399965
 30
0.0
  0
VERTEX
  5
258
100
AcDbEntity
  8
0
370
              25
  6
Continuous
 62
               7
100
AcDbVertex
100
AcDb2dVertex
 10
161.81462652503998
 20
8.7152149622200028
 30
0.0
  0
VERTEX
  5
259
100
AcDbEntity
  8
0
370
              25
  6
Continuous
 62
               7
100
AcDbVertex
100
AcDb2dVertex
 10
166.05544070278
 20
9.6014586608999934
 30
0.0
  0
VERTEX
  5
25A
100
AcDbEntity
  8
0
370
              25
  6
Continuous
 62
               7
100
AcDbVertex
100
AcDb2dVertex
 10
170.14813425981998
 20
10.647417160800003
 30
0.0
  0
VERTEX
  5
25B
100
AcDbEntity
  8
0
370
              25
  6
Continuous
 62
               7
100
AcDbVertex
100
AcDb2dVertex
 10
174.06868128028
 20
11.846953593319995
 30
0.0
  0
VERTEX
  5
25C
100
AcDbEntity
  8
0
370
              25
  6
Continuous
 62
               7
100
AcDbVertex
100
AcDb2dVertex
 10
177.79407636440001
 20
13.193026755879998
 30
0.0
  0
VERTEX
  5
25D
100
AcDbEntity
  8
0
370
              25
  6
Continuous
 62
               7
100
AcDbVertex
100
AcDb2dVertex
 10
181.30245888025999
 20
14.677739097599996
 30
0.0
  0
VERTEX
  5
25E
100
AcDbEntity
  8
0
370
              25
  6
Continuous
 62
               7
100
AcDbVertex
100
AcDb2dVertex
 10
184.57324086801998
 20
16.292376703979997
 30
0.0
  0
VERTEX
  5
25F
100
AcDbEntity
  8
0
370
              25
  6
Continuous
 62
               7
100
AcDbVertex
100
AcDb2dVertex
 10
187.5872239739
 20
18.027465872859992
 30
0.0
  0
VERTEX
  5
260
100
AcDbEntity
  8
0
370
              25
  6
Continuous
 62
               7
100
AcDbVertex
100
AcDb2dVertex
 10
190.32672833993999
 20
19.872821397279992
 30
0.0
  0
VERTEX
  5
261
100
AcDbEntity
  8
0
370
              25
  6
Continuous
 62
               7
100
AcDbVertex
100
AcDb2dVertex
 10
192.77566946947999
 20
21.817616857440001
 30
0.0
  0
VERTEX
  5
262
100
AcDbEntity
  8
0
370
              25
  6
Continuous
 62
               7
100
AcDbVertex
100
AcDb2dVertex
 10
194.9196834517
 20
23.850437201239998
 30
0.0
  0
VERTEX
  5
263
100
AcDbEntity
  8
0
370
              25
  6
Continuous
 62
               7
100
AcDbVertex
100
AcDb2dVertex
 10
196.74618079184
 20
25.959355150020002
 30
0.0
  0
VERTEX
  5
264
100
AcDbEntity
  8
0
370
              25
  6
Continuous
 62
               7
100
AcDbVertex
100
AcDb2dVertex
 10
198.24445183643999
 20
28.131992702120002
 30
0.0
  0
VERTEX
  5
265
100
AcDbEntity
  8
0
370
              25
  6
Continuous
 62
               7
100
AcDbVertex
100
AcDb2dVertex
 10
199.40569521371998
 20
30.355601653419996
 30
0.0
  0
VERTEX
  5
266
100
AcDbEntity
  8
0
370
              25
  6
Continuous
 62
               7
100
AcDbVertex
100
AcDb2dVertex
 10
200.22310116335998
 20
32.617132017320003
 30
0.0
  0
VERTEX
  5
267
100
AcDbEntity
  8
0
370
              25
  6
Continuous
 62
               7
100
AcDbVertex
100
AcDb2dVertex
 10
200.69187073127998
 20
34.903311986480006
 30
0.0
  0
VERTEX
  5
268
100
AcDbEntity
  8
0
370
              25
  6
Continuous
 62
               7
100
AcDbVertex
100
AcDb2dVertex
 10
200.81414461424001
 20
36.817616651639995
 30
0.0
  0
SEQEND
  5
269
100
AcDbEntity
  8
0
370
              25
  6
Continuous
 62
               7
  0
POLYLINE
  5
26A
100
AcDbEntity
  8
0
370
              25
  6
Continuous
 62
               7
100
AcDb2dPolyline
 66
               1
 10
0.0
 20
0.0
 30
0.0
 75
               5
  0
VERTEX
  5
26B
100
AcDbEntity
  8
0
370
              25
  6
Continuous
 62
               7
100
AcDbVertex
100
AcDb2dVertex
 10
101.80710479026
 20
73.644661067000001
 30
0.0
  0
VERTEX
  5
26C
100
AcDbEntity
  8
0
370
              25
  6
Continuous
 62
               7
100
AcDbVertex
100
AcDb2dVertex
 10
101.18130353741999
 20
73.430470949279993
 30
0.0
  0
VERTEX
  5
26D
100
AcDbEntity
  8
0
370
              25
  6
Continuous
 62
               7
100
AcDbVertex
100
AcDb2dVertex
 10
100.06361190945999
 20
73.222842179880004
 30
0.0
  0
VERTEX
  5
26E
100
AcDbEntity
  8
0
370
              25
  6
Continuous
 62
               7
100
AcDbVertex
100
AcDb2dVertex
 10
98.873180838459987
 20
73.189158846179993
 30
0.0
  0
VERTEX
  5
26F
100
AcDbEntity
  8
0
370
              25
  6
Continuous
 62
               7
100
AcDbVertex
100
AcDb2dVertex
 10
97.715778019919995
 20
73.3324161492
 30
0.0
  0
VERTEX
  5
270
100
AcDbEntity
  8
0
370
              25
  6
Continuous
 62
               7
100
AcDbVertex
100
AcDb2dVertex
 10
96.694245630679987
 20
73.63988447253999
 30
0.0
  0
VERTEX
  5
271
100
AcDbEntity
  8
0
370
              25
  6
Continuous
 62
               7
100
AcDbVertex
100
AcDb2dVertex
 10
95.899355790439998
 20
74.084242425580001
 30
0.0
  0
VERTEX
  5
272
100
AcDbEntity
  8
0
370
              25
  6
Continuous
 62
               7
100
AcDbVertex
100
AcDb2dVertex
 10
95.401731545659999
 20
74.626008911260001
 30
0.0
  0
VERTEX
  5
273
100
AcDbEntity
  8
0
370
              25
  6
Continuous
 62
               7
100
AcDbVertex
100
AcDb2dVertex
 10
95.244925633720001
 20
75.180503575699987
 30
0.0
  0
SEQEND
  5
274
100
AcDbEntity
  8
0
370
              25
  6
Continuous
 62
               7
  0
POLYLINE
  5
275
100
AcDbEntity
  8
0
370
              25
  6
Continuous
 62
               7
100
AcDb2dPolyline
 66
               1
 10
0.0
 20
0.0
 30
0.0
 75
               5
  0
VERTEX
  5
276
100
AcDbEntity
  8
0
370
              25
  6
Continuous
 62
               7
100
AcDbVertex
100
AcDb2dVertex
 10
101.80710479026
 20
73.2116482932
 30
0.0
  0
VERTEX
  5
277
100
AcDbEntity
  8
0
370
              25
  6
Continuous
 62
               7
100
AcDbVertex
100
AcDb2dVertex
 10
101.18130353741999
 20
72.997458175480006
 30
0.0
  0
VERTEX
  5
278
100
AcDbEntity
  8
0
370
              25
  6
Continuous
 62
               7
100
AcDbVertex
100
AcDb2dVertex
 10
100.06361190945999
 20
72.789829406080003
 30
0.0
  0
VERTEX
  5
279
100
AcDbEntity
  8
0
370
              25
  6
Continuous
 62
               7
100
AcDbVertex
100
AcDb2dVertex
 10
98.873180838459987
 20
72.756146072379991
 30
0.0
  0
VERTEX
  5
27A
100
AcDbEntity
  8
0
370
              25
  6
Continuous
 62
               7
100
AcDbVertex
100
AcDb2dVertex
 10
97.715778019919995
 20
72.899403375399999
 30
0.0
  0
VERTEX
  5
27B
100
AcDbEntity
  8
0
370
              25
  6
Continuous
 62
               7
100
AcDbVertex
100
AcDb2dVertex
 10
96.694245630679987
 20
73.206871701279994
 30
0.0
  0
VERTEX
  5
27C
100
AcDbEntity
  8
0
370
              25
  6
Continuous
 62
               7
100
AcDbVertex
100
AcDb2dVertex
 10
95.899355790439998
 20
73.65122965178
 30
0.0
  0
VERTEX
  5
27D
100
AcDbEntity
  8
0
370
              25
  6
Continuous
 62
               7
100
AcDbVertex
100
AcDb2dVertex
 10
95.401731545659999
 20
74.192996139999991
 30
0.0
  0
VERTEX
  5
27E
100
AcDbEntity
  8
0
370
              25
  6
Continuous
 62
               7
100
AcDbVertex
100
AcDb2dVertex
 10
95.244925633720001
 20
74.747490804439991
 30
0.0
  0
SEQEND
  5
27F
100
AcDbEntity
  8
0
370
              25
  6
Continuous
 62
               7
  0
POLYLINE
  5
280
100
AcDbEntity
  8
0
370
              25
  6
Continuous
 62
               7
100
AcDb2dPolyline
 66
               1
 10
0.0
 20
0.0
 30
0.0
 75
               5
  0
VERTEX
  5
281
100
AcDbEntity
  8
0
370
              25
  6
Continuous
 62
               7
100
AcDbVertex
100
AcDb2dVertex
 10
178.38336511978
 20
51.180503366499998
 30
0.0
  0
VERTEX
  5
282
100
AcDbEntity
  8
0
370
              25
  6
Continuous
 62
               7
100
AcDbVertex
100
AcDb2dVertex
 10
178.38403270036
 20
51.143962715680004
 30
0.0
  0
VERTEX
  5
283
100
AcDbEntity
  8
0
370
              25
  6
Continuous
 62
               7
100
AcDbVertex
100
AcDb2dVertex
 10
178.58325493589999
 20
50.556173660119995
 30
0.0
  0
VERTEX
  5
284
100
AcDbEntity
  8
0
370
              25
  6
Continuous
 62
               7
100
AcDbVertex
100
AcDb2dVertex
 10
179.1201292241
 20
50.023860218779994
 30
0.0
  0
VERTEX
  5
285
100
AcDbEntity
  8
0
370
              25
  6
Continuous
 62
               7
100
AcDbVertex
100
AcDb2dVertex
 10
179.94695956179999
 20
49.594318748679996
 30
0.0
  0
VERTEX
  5
286
100
AcDbEntity
  8
0
370
              25
  6
Continuous
 62
               7
100
AcDbVertex
100
AcDb2dVertex
 10
180.99027651757999
 20
49.305716412499997
 30
0.0
  0
VERTEX
  5
287
100
AcDbEntity
  8
0
370
              25
  6
Continuous
 62
               7
100
AcDbVertex
100
AcDb2dVertex
 10
182.15737198628
 20
49.183697990040002
 30
0.0
  0
VERTEX
  5
288
100
AcDbEntity
  8
0
370
              25
  6
Continuous
 62
               7
100
AcDbVertex
100
AcDb2dVertex
 10
183.34455118925999
 20
49.239103614560001
 30
0.0
  0
VERTEX
  5
289
100
AcDbEntity
  8
0
370
              25
  6
Continuous
 62
               7
100
AcDbVertex
100
AcDb2dVertex
 10
184.4463217213
 20
49.467012089399994
 30
0.0
  0
VERTEX
  5
28A
100
AcDbEntity
  8
0
370
              25
  6
Continuous
 62
               7
100
AcDbVertex
100
AcDb2dVertex
 10
185.3647906489
 20
49.847171402739995
 30
0.0
  0
VERTEX
  5
28B
100
AcDbEntity
  8
0
370
              25
  6
Continuous
 62
               7
100
AcDbVertex
100
AcDb2dVertex
 10
186.01834997678
 20
50.345802234280001
 30
0.0
  0
VERTEX
  5
28C
100
AcDbEntity
  8
0
370
              25
  6
Continuous
 62
               7
100
AcDbVertex
100
AcDb2dVertex
 10
186.34892108855999
 20
50.91860101756
 30
0.0
  0
VERTEX
  5
28D
100
AcDbEntity
  8
0
370
              25
  6
Continuous
 62
               7
100
AcDbVertex
100
AcDb2dVertex
 10
186.38249087663999
 20
51.222312884099992
 30
0.0
  0
SEQEND
  5
28E
100
AcDbEntity
  8
0
370
              25
  6
Continuous
 62
               7
  0
POLYLINE
  5
28F
100
AcDbEntity
  8
0
370
              25
  6
Continuous
 62
               7
100
AcDb2dPolyline
 66
               1
 10
0.0
 20
0.0
 30
0.0
 75
               5
  0
VERTEX
  5
290
100
AcDbEntity
  8
0
370
              25
  6
Continuous
 62
               7
100
AcDbVertex
100
AcDb2dVertex
 10
178.38336511978
 20
50.747490595239995
 30
0.0
  0
VERTEX
  5
291
100
AcDbEntity
  8
0
370
              25
  6
Continuous
 62
               7
100
AcDbVertex
100
AcDb2dVertex
 10
178.38403270036
 20
50.710949944420001
 30
0.0
  0
VERTEX
  5
292
100
AcDbEntity
  8
0
370
              25
  6
Continuous
 62
               7
100
AcDbVertex
100
AcDb2dVertex
 10
178.58325493589999
 20
50.123160886319994
 30
0.0
  0
VERTEX
  5
293
100
AcDbEntity
  8
0
370
              25
  6
Continuous
 62
               7
100
AcDbVertex
100
AcDb2dVertex
 10
179.1201292241
 20
49.590847447519998
 30
0.0
  0
VERTEX
  5
294
100
AcDbEntity
  8
0
370
              25
  6
Continuous
 62
               7
100
AcDbVertex
100
AcDb2dVertex
 10
179.94695956179999
 20
49.161305974880001
 30
0.0
  0
VERTEX
  5
295
100
AcDbEntity
  8
0
370
              25
  6
Continuous
 62
               7
100
AcDbVertex
100
AcDb2dVertex
 10
180.99027651757999
 20
48.872703638700003
 30
0.0
  0
VERTEX
  5
296
100
AcDbEntity
  8
0
370
              25
  6
Continuous
 62
               7
100
AcDbVertex
100
AcDb2dVertex
 10
182.15737198628
 20
48.750685216239994
 30
0.0
  0
VERTEX
  5
297
100
AcDbEntity
  8
0
370
              25
  6
Continuous
 62
               7
100
AcDbVertex
100
AcDb2dVertex
 10
183.34455118925999
 20
48.806090840759992
 30
0.0
  0
VERTEX
  5
298
100
AcDbEntity
  8
0
370
              25
  6
Continuous
 62
               7
100
AcDbVertex
100
AcDb2dVertex
 10
184.4463217213
 20
49.033999318139998
 30
0.0
  0
VERTEX
  5
299
100
AcDbEntity
  8
0
370
              25
  6
Continuous
 62
               7
100
AcDbVertex
100
AcDb2dVertex
 10
185.3647906489
 20
49.414158631479999
 30
0.0
  0
VERTEX
  5
29A
100
AcDbEntity
  8
0
370
              25
  6
Continuous
 62
               7
100
AcDbVertex
100
AcDb2dVertex
 10
186.01834997678
 20
49.912789463019998
 30
0.0
  0
VERTEX
  5
29B
100
AcDbEntity
  8
0
370
              25
  6
Continuous
 62
               7
100
AcDbVertex
100
AcDb2dVertex
 10
186.34892108855999
 20
50.485588243759999
 30
0.0
  0
VERTEX
  5
29C
100
AcDbEntity
  8
0
370
              25
  6
Continuous
 62
               7
100
AcDbVertex
100
AcDb2dVertex
 10
186.38336717156
 20
50.747490112640001
 30
0.0
  0
SEQEND
  5
29D
100
AcDbEntity
  8
0
370
              25
  6
Continuous
 62
               7
  0
POLYLINE
  5
29E
100
AcDbEntity
  8
0
370
              25
  6
Continuous
 62
               7
100
AcDb2dPolyline
 66
               1
 10
0.0
 20
0.0
 30
0.0
 75
               5
  0
VERTEX
  5
29F
100
AcDbEntity
  8
0
370
              25
  6
Continuous
 62
               7
100
AcDbVertex
100
AcDb2dVertex
 10
140.81414685221998
 20
198.41276496184
 30
0.0
  0
VERTEX
  5
2A0
100
AcDbEntity
  8
0
370
              25
  6
Continuous
 62
               7
100
AcDbVertex
100
AcDb2dVertex
 10
137.06848787924
 20
198.32488518331999
 30
0.0
  0
VERTEX
  5
2A1
100
AcDbEntity
  8
0
370
              25
  6
Continuous
 62
               7
100
AcDbVertex
100
AcDb2dVertex
 10
133.35574490342
 20
198.06201564809999
 30
0.0
  0
VERTEX
  5
2A2
100
AcDbEntity
  8
0
370
              25
  6
Continuous
 62
               7
100
AcDbVertex
100
AcDb2dVertex
 10
129.70854656664
 20
197.62646880520001
 30
0.0
  0
VERTEX
  5
2A3
100
AcDbEntity
  8
0
370
              25
  6
Continuous
 62
               7
100
AcDbVertex
100
AcDb2dVertex
 10
126.15894630746
 20
197.02207061851999
 30
0.0
  0
VERTEX
  5
2A4
100
AcDbEntity
  8
0
370
              25
  6
Continuous
 62
               7
100
AcDbVertex
100
AcDb2dVertex
 10
122.73813541477999
 20
196.25413372666
 30
0.0
  0
VERTEX
  5
2A5
100
AcDbEntity
  8
0
370
              25
  6
Continuous
 62
               7
100
AcDbVertex
100
AcDb2dVertex
 10
119.47617734637998
 20
195.32940614761998
 30
0.0
  0
VERTEX
  5
2A6
100
AcDbEntity
  8
0
370
              25
  6
Continuous
 62
               7
100
AcDbVertex
100
AcDb2dVertex
 10
116.40173550695999
 20
194.25601437518
 30
0.0
  0
VERTEX
  5
2A7
100
AcDbEntity
  8
0
370
              25
  6
Continuous
 62
               7
100
AcDbVertex
100
AcDb2dVertex
 10
113.54183351023998
 20
193.04339170263998
 30
0.0
  0
VERTEX
  5
2A8
100
AcDbEntity
  8
0
370
              25
  6
Continuous
 62
               7
100
AcDbVertex
100
AcDb2dVertex
 10
110.92159982513999
 20
191.70219493367998
 30
0.0
  0
VERTEX
  5
2A9
100
AcDbEntity
  8
0
370
              25
  6
Continuous
 62
               7
100
AcDbVertex
100
AcDb2dVertex
 10
108.56406707767998
 20
190.24420879453999
 30
0.0
  0
VERTEX
  5
2AA
100
AcDbEntity
  8
0
370
              25
  6
Continuous
 62
               7
100
AcDbVertex
100
AcDb2dVertex
 10
106.48994411899999
 20
188.68224912699998
 30
0.0
  0
VERTEX
  5
2AB
100
AcDbEntity
  8
0
370
              25
  6
Continuous
 62
               7
100
AcDbVertex
100
AcDb2dVertex
 10
104.71746576149998
 20
187.03004021145998
 30
0.0
  0
VERTEX
  5
2AC
100
AcDbEntity
  8
0
370
              25
  6
Continuous
 62
               7
100
AcDbVertex
100
AcDb2dVertex
 10
103.26220678225998
 20
185.30210209761998
 30
0.0
  0
VERTEX
  5
2AD
100
AcDbEntity
  8
0
370
              25
  6
Continuous
 62
               7
100
AcDbVertex
100
AcDb2dVertex
 10
102.13695709219999
 20
183.51362017293999
 30
0.0
  0
VERTEX
  5
2AE
100
AcDbEntity
  8
0
370
              25
  6
Continuous
 62
               7
100
AcDbVertex
100
AcDb2dVertex
 10
101.35159895247999
 20
181.68031273719998
 30
0.0
  0
VERTEX
  5
2AF
100
AcDbEntity
  8
0
370
              25
  6
Continuous
 62
               7
100
AcDbVertex
100
AcDb2dVertex
 10
100.91304261089999
 20
179.81828957529999
 30
0.0
  0
VERTEX
  5
2B0
100
AcDbEntity
  8
0
370
              25
  6
Continuous
 62
               7
100
AcDbVertex
100
AcDb2dVertex
 10
100.82513912147999
 20
177.94391313863997
 30
0.0
  0
VERTEX
  5
2B1
100
AcDbEntity
  8
0
370
              25
  6
Continuous
 62
               7
100
AcDbVertex
100
AcDb2dVertex
 10
101.08865991523999
 20
176.07365791293998
 30
0.0
  0
VERTEX
  5
2B2
100
AcDbEntity
  8
0
370
              25
  6
Continuous
 62
               7
100
AcDbVertex
100
AcDb2dVertex
 10
101.70128875601999
 20
174.22396003245998
 30
0.0
  0
VERTEX
  5
2B3
100
AcDbEntity
  8
0
370
              25
  6
Continuous
 62
               7
100
AcDbVertex
100
AcDb2dVertex
 10
102.65764310187998
 20
172.41107185229998
 30
0.0
  0
VERTEX
  5
2B4
100
AcDbEntity
  8
0
370
              25
  6
Continuous
 62
               7
100
AcDbVertex
100
AcDb2dVertex
 10
103.94931886243999
 20
170.65092750619999
 30
0.0
  0
VERTEX
  5
2B5
100
AcDbEntity
  8
0
370
              25
  6
Continuous
 62
               7
100
AcDbVertex
100
AcDb2dVertex
 10
105.56496187193999
 20
168.95899430383997
 30
0.0
  0
VERTEX
  5
2B6
100
AcDbEntity
  8
0
370
              25
  6
Continuous
 62
               7
100
AcDbVertex
100
AcDb2dVertex
 10
107.49037899391999
 20
167.35014172017998
 30
0.0
  0
VERTEX
  5
2B7
100
AcDbEntity
  8
0
370
              25
  6
Continuous
 62
               7
100
AcDbVertex
100
AcDb2dVertex
 10
109.70864563942
 20
165.83850819278001
 30
0.0
  0
VERTEX
  5
2B8
100
AcDbEntity
  8
0
370
              25
  6
Continuous
 62
               7
100
AcDbVertex
100
AcDb2dVertex
 10
112.200266836
 20
164.43737612586
 30
0.0
  0
VERTEX
  5
2B9
100
AcDbEntity
  8
0
370
              25
  6
Continuous
 62
               7
100
AcDbVertex
100
AcDb2dVertex
 10
114.94335011284001
 20
163.15906174827998
 30
0.0
  0
VERTEX
  5
2BA
100
AcDbEntity
  8
0
370
              25
  6
Continuous
 62
               7
100
AcDbVertex
100
AcDb2dVertex
 10
117.91378568072
 20
162.01479644727999
 30
0.0
  0
VERTEX
  5
2BB
100
AcDbEntity
  8
0
370
              25
  6
Continuous
 62
               7
100
AcDbVertex
100
AcDb2dVertex
 10
121.08547135917998
 20
161.01463815295998
 30
0.0
  0
VERTEX
  5
2BC
100
AcDbEntity
  8
0
370
              25
  6
Continuous
 62
               7
100
AcDbVertex
100
AcDb2dVertex
 10
124.43053168199999
 20
160.16737369813998
 30
0.0
  0
VERTEX
  5
2BD
100
AcDbEntity
  8
0
370
              25
  6
Continuous
 62
               7
100
AcDbVertex
100
AcDb2dVertex
 10
127.91957294368
 20
159.48045162774
 30
0.0
  0
VERTEX
  5
2BE
100
AcDbEntity
  8
0
370
              25
  6
Continuous
 62
               7
100
AcDbVertex
100
AcDb2dVertex
 10
131.52193168764001
 20
158.95990617403999
 30
0.0
  0
VERTEX
  5
2BF
100
AcDbEntity
  8
0
370
              25
  6
Continuous
 62
               7
100
AcDbVertex
100
AcDb2dVertex
 10
135.20595107599999
 20
158.61031404111998
 30
0.0
  0
VERTEX
  5
2C0
100
AcDbEntity
  8
0
370
              25
  6
Continuous
 62
               7
100
AcDbVertex
100
AcDb2dVertex
 10
138.93925621288
 20
158.43474717609999
 30
0.0
  0
VERTEX
  5
2C1
100
AcDbEntity
  8
0
370
              25
  6
Continuous
 62
               7
100
AcDbVertex
100
AcDb2dVertex
 10
142.6890360717
 20
158.43474732088001
 30
0.0
  0
VERTEX
  5
2C2
100
AcDbEntity
  8
0
370
              25
  6
Continuous
 62
               7
100
AcDbVertex
100
AcDb2dVertex
 10
146.42234137113999
 20
158.61031528571999
 30
0.0
  0
VERTEX
  5
2C3
100
AcDbEntity
  8
0
370
              25
  6
Continuous
 62
               7
100
AcDbVertex
100
AcDb2dVertex
 10
150.10636109223998
 20
158.95990641025998
 30
0.0
  0
VERTEX
  5
2C4
100
AcDbEntity
  8
0
370
              25
  6
Continuous
 62
               7
100
AcDbVertex
100
AcDb2dVertex
 10
153.70871953648
 20
159.48045127722
 30
0.0
  0
VERTEX
  5
2C5
100
AcDbEntity
  8
0
370
              25
  6
Continuous
 62
               7
100
AcDbVertex
100
AcDb2dVertex
 10
157.19775973897998
 20
160.16737390896
 30
0.0
  0
VERTEX
  5
2C6
100
AcDbEntity
  8
0
370
              25
  6
Continuous
 62
               7
100
AcDbVertex
100
AcDb2dVertex
 10
160.54282019388
 20
161.01463769576
 30
0.0
  0
VERTEX
  5
2C7
100
AcDbEntity
  8
0
370
              25
  6
Continuous
 62
               7
100
AcDbVertex
100
AcDb2dVertex
 10
163.71450724901999
 20
162.01479689940001
 30
0.0
  0
VERTEX
  5
2C8
100
AcDbEntity
  8
0
370
              25
  6
Continuous
 62
               7
100
AcDbVertex
100
AcDb2dVertex
 10
166.68494402847998
 20
163.15906136473998
 30
0.0
  0
VERTEX
  5
2C9
100
AcDbEntity
  8
0
370
              25
  6
Continuous
 62
               7
100
AcDbVertex
100
AcDb2dVertex
 10
169.42802414301997
 20
164.43737652464
 30
0.0
  0
VERTEX
  5
2CA
100
AcDbEntity
  8
0
370
              25
  6
Continuous
 62
               7
100
AcDbVertex
100
AcDb2dVertex
 10
171.9196469398
 20
165.83850792353999
 30
0.0
  0
VERTEX
  5
2CB
100
AcDbEntity
  8
0
370
              25
  6
Continuous
 62
               7
100
AcDbVertex
100
AcDb2dVertex
 10
174.13791511692
 20
167.35014158555998
 30
0.0
  0
VERTEX
  5
2CC
100
AcDbEntity
  8
0
370
              25
  6
Continuous
 62
               7
100
AcDbVertex
100
AcDb2dVertex
 10
176.06333111367999
 20
168.95899448417998
 30
0.0
  0
VERTEX
  5
2CD
100
AcDbEntity
  8
0
370
              25
  6
Continuous
 62
               7
100
AcDbVertex
100
AcDb2dVertex
 10
177.67897525856
 20
170.65092784402
 30
0.0
  0
VERTEX
  5
2CE
100
AcDbEntity
  8
0
370
              25
  6
Continuous
 62
               7
100
AcDbVertex
100
AcDb2dVertex
 10
178.97065000820001
 20
172.41107205803999
 30
0.0
  0
VERTEX
  5
2CF
100
AcDbEntity
  8
0
370
              25
  6
Continuous
 62
               7
100
AcDbVertex
100
AcDb2dVertex
 10
179.92700382320001
 20
174.22396003753997
 30
0.0
  0
VERTEX
  5
2D0
100
AcDbEntity
  8
0
370
              25
  6
Continuous
 62
               7
100
AcDbVertex
100
AcDb2dVertex
 10
180.53963507443999
 20
176.07365818725998
 30
0.0
  0
VERTEX
  5
2D1
100
AcDbEntity
  8
0
370
              25
  6
Continuous
 62
               7
100
AcDbVertex
100
AcDb2dVertex
 10
180.80315406479997
 20
177.94391323515998
 30
0.0
  0
VERTEX
  5
2D2
100
AcDbEntity
  8
0
370
              25
  6
Continuous
 62
               7
100
AcDbVertex
100
AcDb2dVertex
 10
180.71525008515999
 20
179.81828855167998
 30
0.0
  0
VERTEX
  5
2D3
100
AcDbEntity
  8
0
370
              25
  6
Continuous
 62
               7
100
AcDbVertex
100
AcDb2dVertex
 10
180.27669296633999
 20
181.68031262797999
 30
0.0
  0
VERTEX
  5
2D4
100
AcDbEntity
  8
0
370
              25
  6
Continuous
 62
               7
100
AcDbVertex
100
AcDb2dVertex
 10
179.49133710754001
 20
183.51362041677999
 30
0.0
  0
VERTEX
  5
2D5
100
AcDbEntity
  8
0
370
              25
  6
Continuous
 62
               7
100
AcDbVertex
100
AcDb2dVertex
 10
178.36608676978
 20
185.30210207475997
 30
0.0
  0
VERTEX
  5
2D6
100
AcDbEntity
  8
0
370
              25
  6
Continuous
 62
               7
100
AcDbVertex
100
AcDb2dVertex
 10
176.91082565948
 20
187.03003942151997
 30
0.0
  0
VERTEX
  5
2D7
100
AcDbEntity
  8
0
370
              25
  6
Continuous
 62
               7
100
AcDbVertex
100
AcDb2dVertex
 10
175.13834820875999
 20
188.68224946481999
 30
0.0
  0
VERTEX
  5
2D8
100
AcDbEntity
  8
0
370
              25
  6
Continuous
 62
               7
100
AcDbVertex
100
AcDb2dVertex
 10
173.06422692394
 20
190.24420979530001
 30
0.0
  0
VERTEX
  5
2D9
100
AcDbEntity
  8
0
370
              25
  6
Continuous
 62
               7
100
AcDbVertex
100
AcDb2dVertex
 10
170.70669182698001
 20
191.70219446632001
 30
0.0
  0
VERTEX
  5
2DA
100
AcDbEntity
  8
0
370
              25
  6
Continuous
 62
               7
100
AcDbVertex
100
AcDb2dVertex
 10
168.08645941187999
 20
193.04339221318
 30
0.0
  0
VERTEX
  5
2DB
100
AcDbEntity
  8
0
370
              25
  6
Continuous
 62
               7
100
AcDbVertex
100
AcDb2dVertex
 10
165.22655748373998
 20
194.25601507367998
 30
0.0
  0
VERTEX
  5
2DC
100
AcDbEntity
  8
0
370
              25
  6
Continuous
 62
               7
100
AcDbVertex
100
AcDb2dVertex
 10
162.15211691939999
 20
195.32940582503997
 30
0.0
  0
VERTEX
  5
2DD
100
AcDbEntity
  8
0
370
              25
  6
Continuous
 62
               7
100
AcDbVertex
100
AcDb2dVertex
 10
158.89015890433998
 20
196.25413382317998
 30
0.0
  0
VERTEX
  5
2DE
100
AcDbEntity
  8
0
370
              25
  6
Continuous
 62
               7
100
AcDbVertex
100
AcDb2dVertex
 10
155.4693476205
 20
197.02207068201997
 30
0.0
  0
VERTEX
  5
2DF
100
AcDbEntity
  8
0
370
              25
  6
Continuous
 62
               7
100
AcDbVertex
100
AcDb2dVertex
 10
151.91974725463999
 20
197.62646903633998
 30
0.0
  0
VERTEX
  5
2E0
100
AcDbEntity
  8
0
370
              25
  6
Continuous
 62
               7
100
AcDbVertex
100
AcDb2dVertex
 10
148.2725484124
 20
198.06201569889998
 30
0.0
  0
VERTEX
  5
2E1
100
AcDbEntity
  8
0
370
              25
  6
Continuous
 62
               7
100
AcDbVertex
100
AcDb2dVertex
 10
144.55980586838001
 20
198.32488372027998
 30
0.0
  0
VERTEX
  5
2E2
100
AcDbEntity
  8
0
370
              25
  6
Continuous
 62
               7
100
AcDbVertex
100
AcDb2dVertex
 10
140.81414685221998
 20
198.41276496184
 30
0.0
  0
SEQEND
  5
2E3
100
AcDbEntity
  8
0
370
              25
  6
Continuous
 62
               7
  0
POLYLINE
  5
2E4
100
AcDbEntity
  8
0
370
              25
  6
Continuous
 62
               7
100
AcDb2dPolyline
 66
               1
 10
0.0
 20
0.0
 30
0.0
 75
               5
  0
VERTEX
  5
2E5
100
AcDbEntity
  8
0
370
              25
  6
Continuous
 62
               7
100
AcDbVertex
100
AcDb2dVertex
 10
140.81414680649999
 20
207.03776563661998
 30
0.0
  0
VERTEX
  5
2E6
100
AcDbEntity
  8
0
370
              25
  6
Continuous
 62
               7
100
AcDbVertex
100
AcDb2dVertex
 10
136.32236334659999
 20
206.94952266096001
 30
0.0
  0
VERTEX
  5
2E7
100
AcDbEntity
  8
0
370
              25
  6
Continuous
 62
               7
100
AcDbVertex
100
AcDb2dVertex
 10
131.85827277518001
 20
206.68534472601999
 30
0.0
  0
VERTEX
  5
2E8
100
AcDbEntity
  8
0
370
              25
  6
Continuous
 62
               7
100
AcDbVertex
100
AcDb2dVertex
 10
127.44939794803999
 20
206.24685341351997
 30
0.0
  0
VERTEX
  5
2E9
100
AcDbEntity
  8
0
370
              25
  6
Continuous
 62
               7
100
AcDbVertex
100
AcDb2dVertex
 10
123.12292160989999
 20
205.63675785697998
 30
0.0
  0
VERTEX
  5
2EA
100
AcDbEntity
  8
0
370
              25
  6
Continuous
 62
               7
100
AcDbVertex
100
AcDb2dVertex
 10
118.90552157633999
 20
204.85881628358001
 30
0.0
  0
VERTEX
  5
2EB
100
AcDbEntity
  8
0
370
              25
  6
Continuous
 62
               7
100
AcDbVertex
100
AcDb2dVertex
 10
114.82319180349999
 20
203.91782636723997
 30
0.0
  0
VERTEX
  5
2EC
100
AcDbEntity
  8
0
370
              25
  6
Continuous
 62
               7
100
AcDbVertex
100
AcDb2dVertex
 10
110.90110301066001
 20
202.81959019185999
 30
0.0
  0
VERTEX
  5
2ED
100
AcDbEntity
  8
0
370
              25
  6
Continuous
 62
               7
100
AcDbVertex
100
AcDb2dVertex
 10
107.16343876641999
 20
201.57087661359998
 30
0.0
  0
VERTEX
  5
2EE
100
AcDbEntity
  8
0
370
              25
  6
Continuous
 62
               7
100
AcDbVertex
100
AcDb2dVertex
 10
103.63324684027999
 20
200.17938565769998
 30
0.0
  0
VERTEX
  5
2EF
100
AcDbEntity
  8
0
370
              25
  6
Continuous
 62
               7
100
AcDbVertex
100
AcDb2dVertex
 10
100.33228442011999
 20
198.65369642307999
 30
0.0
  0
VERTEX
  5
2F0
100
AcDbEntity
  8
0
370
              25
  6
Continuous
 62
               7
100
AcDbVertex
100
AcDb2dVertex
 10
97.280906281079993
 20
197.00321494884
 30
0.0
  0
VERTEX
  5
2F1
100
AcDbEntity
  8
0
370
              25
  6
Continuous
 62
               7
100
AcDbVertex
100
AcDb2dVertex
 10
94.497922659859995
 20
195.23811817423999
 30
0.0
  0
VERTEX
  5
2F2
100
AcDbEntity
  8
0
370
              25
  6
Continuous
 62
               7
100
AcDbVertex
100
AcDb2dVertex
 10
92.000495856399993
 20
193.36928675316
 30
0.0
  0
VERTEX
  5
2F3
100
AcDbEntity
  8
0
370
              25
  6
Continuous
 62
               7
100
AcDbVertex
100
AcDb2dVertex
 10
89.8040217251
 20
191.40824339560001
 30
0.0
  0
VERTEX
  5
2F4
100
AcDbEntity
  8
0
370
              25
  6
Continuous
 62
               7
100
AcDbVertex
100
AcDb2dVertex
 10
87.92204342657999
 20
189.36707817897999
 30
0.0
  0
VERTEX
  5
2F5
100
AcDbEntity
  8
0
370
              25
  6
Continuous
 62
               7
100
AcDbVertex
100
AcDb2dVertex
 10
86.366159990219998
 20
187.25837679821998
 30
0.0
  0
VERTEX
  5
2F6
100
AcDbEntity
  8
0
370
              25
  6
Continuous
 62
               7
100
AcDbVertex
100
AcDb2dVertex
 10
85.145969651840005
 20
185.09513799287998
 30
0.0
  0
VERTEX
  5
2F7
100
AcDbEntity
  8
0
370
              25
  6
Continuous
 62
               7
100
AcDbVertex
100
AcDb2dVertex
 10
84.268987341799999
 20
182.89070205631998
 30
0.0
  0
VERTEX
  5
2F8
100
AcDbEntity
  8
0
370
              25
  6
Continuous
 62
               7
100
AcDbVertex
100
AcDb2dVertex
 10
83.740629838700002
 20
180.65865605814
 30
0.0
  0
VERTEX
  5
2F9
100
AcDbEntity
  8
0
370
              25
  6
Continuous
 62
               7
100
AcDbVertex
100
AcDb2dVertex
 10
83.564145167540005
 20
178.41276522099997
 30
0.0
  0
VERTEX
  5
2FA
100
AcDbEntity
  8
0
370
              25
  6
Continuous
 62
               7
100
AcDbVertex
100
AcDb2dVertex
 10
83.740631123939991
 20
176.16687349231998
 30
0.0
  0
VERTEX
  5
2FB
100
AcDbEntity
  8
0
370
              25
  6
Continuous
 62
               7
100
AcDbVertex
100
AcDb2dVertex
 10
84.268986993819993
 20
173.93482820787997
 30
0.0
  0
VERTEX
  5
2FC
100
AcDbEntity
  8
0
370
              25
  6
Continuous
 62
               7
100
AcDbVertex
100
AcDb2dVertex
 10
85.145969616279999
 20
171.73039079303999
 30
0.0
  0
VERTEX
  5
2FD
100
AcDbEntity
  8
0
370
              25
  6
Continuous
 62
               7
100
AcDbVertex
100
AcDb2dVertex
 10
86.366160726819999
 20
169.56715262524
 30
0.0
  0
VERTEX
  5
2FE
100
AcDbEntity
  8
0
370
              25
  6
Continuous
 62
               7
100
AcDbVertex
100
AcDb2dVertex
 10
87.922043876160004
 20
167.45845260592
 30
0.0
  0
VERTEX
  5
2FF
100
AcDbEntity
  8
0
370
              25
  6
Continuous
 62
               7
100
AcDbVertex
100
AcDb2dVertex
 10
89.804023708839992
 20
165.4172877195
 30
0.0
  0
VERTEX
  5
300
100
AcDbEntity
  8
0
370
              25
  6
Continuous
 62
               7
100
AcDbVertex
100
AcDb2dVertex
 10
92.000496057059991
 20
163.45624332308
 30
0.0
  0
VERTEX
  5
301
100
AcDbEntity
  8
0
370
              25
  6
Continuous
 62
               7
100
AcDbVertex
100
AcDb2dVertex
 10
94.49792321612
 20
161.58741120095999
 30
0.0
  0
VERTEX
  5
302
100
AcDbEntity
  8
0
370
              25
  6
Continuous
 62
               7
100
AcDbVertex
100
AcDb2dVertex
 10
97.280905130459999
 20
159.82231523915999
 30
0.0
  0
VERTEX
  5
303
100
AcDbEntity
  8
0
370
              25
  6
Continuous
 62
               7
100
AcDbVertex
100
AcDb2dVertex
 10
100.33228359716
 20
158.17183402907997
 30
0.0
  0
VERTEX
  5
304
100
AcDbEntity
  8
0
370
              25
  6
Continuous
 62
               7
100
AcDbVertex
100
AcDb2dVertex
 10
103.63324654818
 20
156.64614495955999
 30
0.0
  0
VERTEX
  5
305
100
AcDbEntity
  8
0
370
              25
  6
Continuous
 62
               7
100
AcDbVertex
100
AcDb2dVertex
 10
107.16344009484
 20
155.25465315021998
 30
0.0
  0
VERTEX
  5
306
100
AcDbEntity
  8
0
370
              25
  6
Continuous
 62
               7
100
AcDbVertex
100
AcDb2dVertex
 10
110.90110293954
 20
154.00593974722
 30
0.0
  0
VERTEX
  5
307
100
AcDbEntity
  8
0
370
              25
  6
Continuous
 62
               7
100
AcDbVertex
100
AcDb2dVertex
 10
114.82318965212001
 20
152.90770268029999
 30
0.0
  0
VERTEX
  5
308
100
AcDbEntity
  8
0
370
              25
  6
Continuous
 62
               7
100
AcDbVertex
100
AcDb2dVertex
 10
118.9055200879
 20
151.96671353357999
 30
0.0
  0
VERTEX
  5
309
100
AcDbEntity
  8
0
370
              25
  6
Continuous
 62
               7
100
AcDbVertex
100
AcDb2dVertex
 10
123.12292284941998
 20
151.18877181286001
 30
0.0
  0
VERTEX
  5
30A
100
AcDbEntity
  8
0
370
              25
  6
Continuous
 62
               7
100
AcDbVertex
100
AcDb2dVertex
 10
127.44940046009999
 20
150.57867664494
 30
0.0
  0
VERTEX
  5
30B
100
AcDbEntity
  8
0
370
              25
  6
Continuous
 62
               7
100
AcDbVertex
100
AcDb2dVertex
 10
131.85827232814
 20
150.14018548992001
 30
0.0
  0
VERTEX
  5
30C
100
AcDbEntity
  8
0
370
              25
  6
Continuous
 62
               7
100
AcDbVertex
100
AcDb2dVertex
 10
136.32236432703999
 20
149.8760067371
 30
0.0
  0
VERTEX
  5
30D
100
AcDbEntity
  8
0
370
              25
  6
Continuous
 62
               7
100
AcDbVertex
100
AcDb2dVertex
 10
140.81414599877999
 20
149.78776440406
 30
0.0
  0
VERTEX
  5
30E
100
AcDbEntity
  8
0
370
              25
  6
Continuous
 62
               7
100
AcDbVertex
100
AcDb2dVertex
 10
145.30592945868
 20
149.87600737971999
 30
0.0
  0
VERTEX
  5
30F
100
AcDbEntity
  8
0
370
              25
  6
Continuous
 62
               7
100
AcDbVertex
100
AcDb2dVertex
 10
149.77002003009997
 20
150.14018531465999
 30
0.0
  0
VERTEX
  5
310
100
AcDbEntity
  8
0
370
              25
  6
Continuous
 62
               7
100
AcDbVertex
100
AcDb2dVertex
 10
154.17889485978
 20
150.57867662716001
 30
0.0
  0
VERTEX
  5
311
100
AcDbEntity
  8
0
370
              25
  6
Continuous
 62
               7
100
AcDbVertex
100
AcDb2dVertex
 10
158.50537119538001
 20
151.1887721837
 30
0.0
  0
VERTEX
  5
312
100
AcDbEntity
  8
0
370
              25
  6
Continuous
 62
               7
100
AcDbVertex
100
AcDb2dVertex
 10
162.72277123148001
 20
151.9667137571
 30
0.0
  0
VERTEX
  5
313
100
AcDbEntity
  8
0
370
              25
  6
Continuous
 62
               7
100
AcDbVertex
100
AcDb2dVertex
 10
166.80510100431999
 20
152.90770367343998
 30
0.0
  0
VERTEX
  5
314
100
AcDbEntity
  8
0
370
              25
  6
Continuous
 62
               7
100
AcDbVertex
100
AcDb2dVertex
 10
170.72718979461999
 20
154.00593984881999
 30
0.0
  0
VERTEX
  5
315
100
AcDbEntity
  8
0
370
              25
  6
Continuous
 62
               7
100
AcDbVertex
100
AcDb2dVertex
 10
174.46485404139997
 20
155.25465342707997
 30
0.0
  0
VERTEX
  5
316
100
AcDbEntity
  8
0
370
              25
  6
Continuous
 62
               7
100
AcDbVertex
100
AcDb2dVertex
 10
177.995045965
 20
156.64614438298
 30
0.0
  0
VERTEX
  5
317
100
AcDbEntity
  8
0
370
              25
  6
Continuous
 62
               7
100
AcDbVertex
100
AcDb2dVertex
 10
181.29600838515998
 20
158.17183361759999
 30
0.0
  0
VERTEX
  5
318
100
AcDbEntity
  8
0
370
              25
  6
Continuous
 62
               7
100
AcDbVertex
100
AcDb2dVertex
 10
184.3473865242
 20
159.82231509438
 30
0.0
  0
VERTEX
  5
319
100
AcDbEntity
  8
0
370
              25
  6
Continuous
 62
               7
100
AcDbVertex
100
AcDb2dVertex
 10
187.13037014541999
 20
161.58741186643999
 30
0.0
  0
VERTEX
  5
31A
100
AcDbEntity
  8
0
370
              25
  6
Continuous
 62
               7
100
AcDbVertex
100
AcDb2dVertex
 10
189.62779695141998
 20
163.45624328751998
 30
0.0
  0
VERTEX
  5
31B
100
AcDbEntity
  8
0
370
              25
  6
Continuous
 62
               7
100
AcDbVertex
100
AcDb2dVertex
 10
191.82427108272
 20
165.41728664508
 30
0.0
  0
VERTEX
  5
31C
100
AcDbEntity
  8
0
370
              25
  6
Continuous
 62
               7
100
AcDbVertex
100
AcDb2dVertex
 10
193.70624937869999
 20
167.45845186169998
 30
0.0
  0
VERTEX
  5
31D
100
AcDbEntity
  8
0
370
              25
  6
Continuous
 62
               7
100
AcDbVertex
100
AcDb2dVertex
 10
195.26213281759999
 20
169.56715324245999
 30
0.0
  0
VERTEX
  5
31E
100
AcDbEntity
  8
0
370
              25
  6
Continuous
 62
               7
100
AcDbVertex
100
AcDb2dVertex
 10
196.48232315343998
 20
171.73039205033999
 30
0.0
  0
VERTEX
  5
31F
100
AcDbEntity
  8
0
370
              25
  6
Continuous
 62
               7
100
AcDbVertex
100
AcDb2dVertex
 10
197.35930546348001
 20
173.93482798436
 30
0.0
  0
VERTEX
  5
320
100
AcDbEntity
  8
0
370
              25
  6
Continuous
 62
               7
100
AcDbVertex
100
AcDb2dVertex
 10
197.88766296658
 20
176.16687398254001
 30
0.0
  0
VERTEX
  5
321
100
AcDbEntity
  8
0
370
              25
  6
Continuous
 62
               7
100
AcDbVertex
100
AcDb2dVertex
 10
198.06414763773998
 20
178.41276481968001
 30
0.0
  0
VERTEX
  5
322
100
AcDbEntity
  8
0
370
              25
  6
Continuous
 62
               7
100
AcDbVertex
100
AcDb2dVertex
 10
197.88766168387997
 20
180.65865654835997
 30
0.0
  0
VERTEX
  5
323
100
AcDbEntity
  8
0
370
              25
  6
Continuous
 62
               7
100
AcDbVertex
100
AcDb2dVertex
 10
197.35930581145999
 20
182.8907018328
 30
0.0
  0
VERTEX
  5
324
100
AcDbEntity
  8
0
370
              25
  6
Continuous
 62
               7
100
AcDbVertex
100
AcDb2dVertex
 10
196.48232319153999
 20
185.09513924763999
 30
0.0
  0
VERTEX
  5
325
100
AcDbEntity
  8
0
370
              25
  6
Continuous
 62
               7
100
AcDbVertex
100
AcDb2dVertex
 10
195.26213207845998
 20
187.25837741798
 30
0.0
  0
VERTEX
  5
326
100
AcDbEntity
  8
0
370
              25
  6
Continuous
 62
               7
100
AcDbVertex
100
AcDb2dVertex
 10
193.70624892911999
 20
189.36707743476001
 30
0.0
  0
VERTEX
  5
327
100
AcDbEntity
  8
0
370
              25
  6
Continuous
 62
               7
100
AcDbVertex
100
AcDb2dVertex
 10
191.82426909643999
 20
191.40824232117998
 30
0.0
  0
VERTEX
  5
328
100
AcDbEntity
  8
0
370
              25
  6
Continuous
 62
               7
100
AcDbVertex
100
AcDb2dVertex
 10
189.62779674821999
 20
193.36928671759998
 30
0.0
  0
VERTEX
  5
329
100
AcDbEntity
  8
0
370
              25
  6
Continuous
 62
               7
100
AcDbVertex
100
AcDb2dVertex
 10
187.13036958915998
 20
195.23811883971999
 30
0.0
  0
VERTEX
  5
32A
100
AcDbEntity
  8
0
370
              25
  6
Continuous
 62
               7
100
AcDbVertex
100
AcDb2dVertex
 10
184.34738767735999
 20
197.00321480151999
 30
0.0
  0
VERTEX
  5
32B
100
AcDbEntity
  8
0
370
              25
  6
Continuous
 62
               7
100
AcDbVertex
100
AcDb2dVertex
 10
181.29600920811998
 20
198.6536960116
 30
0.0
  0
VERTEX
  5
32C
100
AcDbEntity
  8
0
370
              25
  6
Continuous
 62
               7
100
AcDbVertex
100
AcDb2dVertex
 10
177.9950462571
 20
200.17938508111999
 30
0.0
  0
VERTEX
  5
32D
100
AcDbEntity
  8
0
370
              25
  6
Continuous
 62
               7
100
AcDbVertex
100
AcDb2dVertex
 10
174.46485271043997
 20
201.57087689045997
 30
0.0
  0
VERTEX
  5
32E
100
AcDbEntity
  8
0
370
              25
  6
Continuous
 62
               7
100
AcDbVertex
100
AcDb2dVertex
 10
170.72718986827999
 20
202.81959029346001
 30
0.0
  0
VERTEX
  5
32F
100
AcDbEntity
  8
0
370
              25
  6
Continuous
 62
               7
100
AcDbVertex
100
AcDb2dVertex
 10
166.80510315315999
 20
203.91782736037996
 30
0.0
  0
VERTEX
  5
330
100
AcDbEntity
  8
0
370
              25
  6
Continuous
 62
               7
100
AcDbVertex
100
AcDb2dVertex
 10
162.72277271991999
 20
204.85881650709999
 30
0.0
  0
VERTEX
  5
331
100
AcDbEntity
  8
0
370
              25
  6
Continuous
 62
               7
100
AcDbVertex
100
AcDb2dVertex
 10
158.5053699584
 20
205.63675822782
 30
0.0
  0
VERTEX
  5
332
100
AcDbEntity
  8
0
370
              25
  6
Continuous
 62
               7
100
AcDbVertex
100
AcDb2dVertex
 10
154.17889234518
 20
206.24685339573998
 30
0.0
  0
VERTEX
  5
333
100
AcDbEntity
  8
0
370
              25
  6
Continuous
 62
               7
100
AcDbVertex
100
AcDb2dVertex
 10
149.77002047714001
 20
206.68534455075999
 30
0.0
  0
VERTEX
  5
334
100
AcDbEntity
  8
0
370
              25
  6
Continuous
 62
               7
100
AcDbVertex
100
AcDb2dVertex
 10
145.30592848078001
 20
206.94952330357998
 30
0.0
  0
VERTEX
  5
335
100
AcDbEntity
  8
0
370
              25
  6
Continuous
 62
               7
100
AcDbVertex
100
AcDb2dVertex
 10
140.81414680649999
 20
207.03776563661998
 30
0.0
  0
SEQEND
  5
336
100
AcDbEntity
  8
0
370
              25
  6
Continuous
 62
               7
  0
POLYLINE
  5
337
100
AcDbEntity
  8
0
370
              25
  6
Continuous
 62
               7
100
AcDb2dPolyline
 66
               1
 10
0.0
 20
0.0
 30
0.0
 75
               5
  0
VERTEX
  5
338
100
AcDbEntity
  8
0
370
              25
  6
Continuous
 62
               7
100
AcDbVertex
100
AcDb2dVertex
 10
83.564145167540005
 20
126.45124538250001
 30
0.0
  0
VERTEX
  5
339
100
AcDbEntity
  8
0
370
              25
  6
Continuous
 62
               7
100
AcDbVertex
100
AcDb2dVertex
 10
83.740631123939991
 20
124.20535365382
 30
0.0
  0
VERTEX
  5
33A
100
AcDbEntity
  8
0
370
              25
  6
Continuous
 62
               7
100
AcDbVertex
100
AcDb2dVertex
 10
84.268986993819993
 20
121.97330836684
 30
0.0
  0
VERTEX
  5
33B
100
AcDbEntity
  8
0
370
              25
  6
Continuous
 62
               7
100
AcDbVertex
100
AcDb2dVertex
 10
85.145969616279999
 20
119.768870952
 30
0.0
  0
VERTEX
  5
33C
100
AcDbEntity
  8
0
370
              25
  6
Continuous
 62
               7
100
AcDbVertex
100
AcDb2dVertex
 10
86.366160726819999
 20
117.60563278419998
 30
0.0
  0
VERTEX
  5
33D
100
AcDbEntity
  8
0
370
              25
  6
Continuous
 62
               7
100
AcDbVertex
100
AcDb2dVertex
 10
87.922043876160004
 20
115.49693276742001
 30
0.0
  0
VERTEX
  5
33E
100
AcDbEntity
  8
0
370
              25
  6
Continuous
 62
               7
100
AcDbVertex
100
AcDb2dVertex
 10
89.804023708839992
 20
113.455767881
 30
0.0
  0
VERTEX
  5
33F
100
AcDbEntity
  8
0
370
              25
  6
Continuous
 62
               7
100
AcDbVertex
100
AcDb2dVertex
 10
92.000496057059991
 20
111.49472348457999
 30
0.0
  0
VERTEX
  5
340
100
AcDbEntity
  8
0
370
              25
  6
Continuous
 62
               7
100
AcDbVertex
100
AcDb2dVertex
 10
94.49792321612
 20
109.62589136246
 30
0.0
  0
VERTEX
  5
341
100
AcDbEntity
  8
0
370
              25
  6
Continuous
 62
               7
100
AcDbVertex
100
AcDb2dVertex
 10
97.280905130459999
 20
107.86079540066
 30
0.0
  0
VERTEX
  5
342
100
AcDbEntity
  8
0
370
              25
  6
Continuous
 62
               7
100
AcDbVertex
100
AcDb2dVertex
 10
100.33228359716
 20
106.21031419058001
 30
0.0
  0
VERTEX
  5
343
100
AcDbEntity
  8
0
370
              25
  6
Continuous
 62
               7
100
AcDbVertex
100
AcDb2dVertex
 10
103.63324654818
 20
104.68462512105999
 30
0.0
  0
VERTEX
  5
344
100
AcDbEntity
  8
0
370
              25
  6
Continuous
 62
               7
100
AcDbVertex
100
AcDb2dVertex
 10
107.16344009484
 20
103.29313330917999
 30
0.0
  0
VERTEX
  5
345
100
AcDbEntity
  8
0
370
              25
  6
Continuous
 62
               7
100
AcDbVertex
100
AcDb2dVertex
 10
110.90110293954
 20
102.04441990618
 30
0.0
  0
VERTEX
  5
346
100
AcDbEntity
  8
0
370
              25
  6
Continuous
 62
               7
100
AcDbVertex
100
AcDb2dVertex
 10
114.82318965212001
 20
100.9461828418
 30
0.0
  0
VERTEX
  5
347
100
AcDbEntity
  8
0
370
              25
  6
Continuous
 62
               7
100
AcDbVertex
100
AcDb2dVertex
 10
118.9055200879
 20
100.00519369253999
 30
0.0
  0
VERTEX
  5
348
100
AcDbEntity
  8
0
370
              25
  6
Continuous
 62
               7
100
AcDbVertex
100
AcDb2dVertex
 10
123.12292284941998
 20
99.227251974359987
 30
0.0
  0
VERTEX
  5
349
100
AcDbEntity
  8
0
370
              25
  6
Continuous
 62
               7
100
AcDbVertex
100
AcDb2dVertex
 10
127.44940046009999
 20
98.617156806439993
 30
0.0
  0
VERTEX
  5
34A
100
AcDbEntity
  8
0
370
              25
  6
Continuous
 62
               7
100
AcDbVertex
100
AcDb2dVertex
 10
131.85827232814
 20
98.17866565141999
 30
0.0
  0
VERTEX
  5
34B
100
AcDbEntity
  8
0
370
              25
  6
Continuous
 62
               7
100
AcDbVertex
100
AcDb2dVertex
 10
136.32236432703999
 20
97.914486898599989
 30
0.0
  0
VERTEX
  5
34C
100
AcDbEntity
  8
0
370
              25
  6
Continuous
 62
               7
100
AcDbVertex
100
AcDb2dVertex
 10
140.81414599877999
 20
97.826244563019998
 30
0.0
  0
VERTEX
  5
34D
100
AcDbEntity
  8
0
370
              25
  6
Continuous
 62
               7
100
AcDbVertex
100
AcDb2dVertex
 10
145.30592945868
 20
97.914487541219984
 30
0.0
  0
VERTEX
  5
34E
100
AcDbEntity
  8
0
370
              25
  6
Continuous
 62
               7
100
AcDbVertex
100
AcDb2dVertex
 10
149.77002003009997
 20
98.178665476160006
 30
0.0
  0
VERTEX
  5
34F
100
AcDbEntity
  8
0
370
              25
  6
Continuous
 62
               7
100
AcDbVertex
100
AcDb2dVertex
 10
154.17889485978
 20
98.617156786119992
 30
0.0
  0
VERTEX
  5
350
100
AcDbEntity
  8
0
370
              25
  6
Continuous
 62
               7
100
AcDbVertex
100
AcDb2dVertex
 10
158.50537119538001
 20
99.227252342659995
 30
0.0
  0
VERTEX
  5
351
100
AcDbEntity
  8
0
370
              25
  6
Continuous
 62
               7
100
AcDbVertex
100
AcDb2dVertex
 10
162.72277123148001
 20
100.0051939186
 30
0.0
  0
VERTEX
  5
352
100
AcDbEntity
  8
0
370
              25
  6
Continuous
 62
               7
100
AcDbVertex
100
AcDb2dVertex
 10
166.80510100431999
 20
100.94618383494
 30
0.0
  0
VERTEX
  5
353
100
AcDbEntity
  8
0
370
              25
  6
Continuous
 62
               7
100
AcDbVertex
100
AcDb2dVertex
 10
170.72718979461999
 20
102.04442000777999
 30
0.0
  0
VERTEX
  5
354
100
AcDbEntity
  8
0
370
              25
  6
Continuous
 62
               7
100
AcDbVertex
100
AcDb2dVertex
 10
174.46485404139997
 20
103.29313358857999
 30
0.0
  0
VERTEX
  5
355
100
AcDbEntity
  8
0
370
              25
  6
Continuous
 62
               7
100
AcDbVertex
100
AcDb2dVertex
 10
177.995045965
 20
104.68462454447999
 30
0.0
  0
VERTEX
  5
356
100
AcDbEntity
  8
0
370
              25
  6
Continuous
 62
               7
100
AcDbVertex
100
AcDb2dVertex
 10
181.29600838515998
 20
106.21031377909999
 30
0.0
  0
VERTEX
  5
357
100
AcDbEntity
  8
0
370
              25
  6
Continuous
 62
               7
100
AcDbVertex
100
AcDb2dVertex
 10
184.3473865242
 20
107.86079525334
 30
0.0
  0
VERTEX
  5
358
100
AcDbEntity
  8
0
370
              25
  6
Continuous
 62
               7
100
AcDbVertex
100
AcDb2dVertex
 10
187.13037014541999
 20
109.62589202793998
 30
0.0
  0
VERTEX
  5
359
100
AcDbEntity
  8
0
370
              25
  6
Continuous
 62
               7
100
AcDbVertex
100
AcDb2dVertex
 10
189.62779695141998
 20
111.49472344901999
 30
0.0
  0
VERTEX
  5
35A
100
AcDbEntity
  8
0
370
              25
  6
Continuous
 62
               7
100
AcDbVertex
100
AcDb2dVertex
 10
191.82427108272
 20
113.45576680658
 30
0.0
  0
VERTEX
  5
35B
100
AcDbEntity
  8
0
370
              25
  6
Continuous
 62
               7
100
AcDbVertex
100
AcDb2dVertex
 10
193.70624937869999
 20
115.49693202319999
 30
0.0
  0
VERTEX
  5
35C
100
AcDbEntity
  8
0
370
              25
  6
Continuous
 62
               7
100
AcDbVertex
100
AcDb2dVertex
 10
195.26213281759999
 20
117.60563340395998
 30
0.0
  0
VERTEX
  5
35D
100
AcDbEntity
  8
0
370
              25
  6
Continuous
 62
               7
100
AcDbVertex
100
AcDb2dVertex
 10
196.48232315343998
 20
119.7688722093
 30
0.0
  0
VERTEX
  5
35E
100
AcDbEntity
  8
0
370
              25
  6
Continuous
 62
               7
100
AcDbVertex
100
AcDb2dVertex
 10
197.35930546348001
 20
121.97330814332
 30
0.0
  0
VERTEX
  5
35F
100
AcDbEntity
  8
0
370
              25
  6
Continuous
 62
               7
100
AcDbVertex
100
AcDb2dVertex
 10
197.88766296658
 20
124.20535414403999
 30
0.0
  0
VERTEX
  5
360
100
AcDbEntity
  8
0
370
              25
  6
Continuous
 62
               7
100
AcDbVertex
100
AcDb2dVertex
 10
198.06414763773998
 20
126.45124497863999
 30
0.0
  0
VERTEX
  5
361
100
AcDbEntity
  8
0
370
              25
  6
Continuous
 62
               7
100
AcDbVertex
100
AcDb2dVertex
 10
198.06414763773998
 20
126.45124497863999
 30
0.0
  0
SEQEND
  5
362
100
AcDbEntity
  8
0
370
              25
  6
Continuous
 62
               7
  0
SPLINE
  5
363
100
AcDbEntity
  8
0
370
              25
  6
Continuous
 62
               7
100
AcDbSpline
210
0.0
220
0.0
230
1.0
 70
               8
 71
               2
 72
              19
 73
              16
 74
               0
 42
0.000001
 43
0.000001
 40
0.0
 40
0.0
 40
0.0
 40
1.0
 40
1.0
 40
2.0
 40
3.0
 40
4.0
 40
5.0
 40
6.0
 40
7.0
 40
8.0
 40
9.0
 40
10.0
 40
11.0
 40
11.0
 40
12.0
 40
12.0
 40
12.0
 10
198.03739254646982
 20
129.04034796864809
 30
0.0
 10
198.03739611816746
 20
129.03942885599295
 30
0.0
 10
198.03739968986511
 20
129.03850974333781
 30
0.0
 10
198.03772392739504
 20
128.95174908195244
 30
0.0
 10
198.03861963493745
 20
128.75305629219747
 30
0.0
 10
198.04062956031342
 20
128.54815764465218
 30
0.0
 10
198.04407773312334
 20
128.38949324068452
 30
0.0
 10
198.04718295532862
 20
128.30112588239237
 30
0.0
 10
198.0493341934949
 20
128.24839866877679
 30
0.0
 10
198.05167407706412
 20
128.20167827830565
 30
0.0
 10
198.05390875528391
 20
128.1700996657234
 30
0.0
 10
198.05587487979372
 20
128.15917705593125
 30
0.0
 10
198.05696734707402
 20
128.17004121542848
 30
0.0
 10
198.05726929513315
 20
128.1745348114419
 30
0.0
 10
198.05727049432721
 20
128.1745518751232
 30
0.0
 10
198.05727169352127
 20
128.1745689388045
 30
0.0
  0
LINE
  5
364
100
AcDbEntity
  8
0
370
              25
  6
Continuous
 62
               7
100
AcDbLine
 10
198.06285614426
 20
128.24459238
 30
0.0
 11
198.06346839855999
 21
128.41921846458001
 31
0.0
  0
SPLINE
  5
365
100
AcDbEntity
  8
0
370
              25
  6
Continuous
 62
               7
100
AcDbSpline
210
0.0
220
0.0
230
1.0
 70
               8
 71
               2
 72
              17
 73
              14
 74
               0
 42
0.000001
 43
0.000001
 40
0.0
 40
0.0
 40
0.0
 40
1.0
 40
1.0
 40
2.0
 40
3.0
 40
4.0
 40
5.0
 40
6.0
 40
7.0
 40
8.0
 40
9.0
 40
9.0
 40
10.0
 40
10.0
 40
10.0
 10
198.06406076215134
 20
131.42838075289464
 30
0.0
 10
198.06406098947372
 20
131.4283640541733
 30
0.0
 10
198.06406121679609
 20
131.42834735545196
 30
0.0
 10
198.06457452956752
 20
131.39113823568206
 30
0.0
 10
198.06361702572374
 20
131.23633934442103
 30
0.0
 10
198.06003501883731
 20
130.96454691411583
 30
0.0
 10
198.05507313973334
 20
130.63771636824387
 30
0.0
 10
198.04917292180434
 20
130.26912268984731
 30
0.0
 10
198.04320103412689
 20
129.86422137793573
 30
0.0
 10
198.03874991264257
 20
129.45572352897784
 30
0.0
 10
198.03761319550048
 20
129.15312457263454
 30
0.0
 10
198.0373963976607
 20
129.04211499192024
 30
0.0
 10
198.03739447206527
 20
129.04123148028418
 30
0.0
 10
198.03739254646982
 20
129.04034796864809
 30
0.0
  0
POLYLINE
  5
366
100
AcDbEntity
  8
0
370
              25
  6
Continuous
 62
               7
100
AcDb2dPolyline
 66
               1
 10
0.0
 20
0.0
 30
0.0
 75
               5
  0
VERTEX
  5
367
100
AcDbEntity
  8
0
370
              25
  6
Continuous
 62
               7
100
AcDbVertex
100
AcDb2dVertex
 10
140.81414685221998
 20
197.11373067649998
 30
0.0
  0
VERTEX
  5
368
100
AcDbEntity
  8
0
370
              25
  6
Continuous
 62
               7
100
AcDbVertex
100
AcDb2dVertex
 10
137.06848787924
 20
197.02585089797998
 30
0.0
  0
VERTEX
  5
369
100
AcDbEntity
  8
0
370
              25
  6
Continuous
 62
               7
100
AcDbVertex
100
AcDb2dVertex
 10
133.35574490342
 20
196.76298136276
 30
0.0
  0
VERTEX
  5
36A
100
AcDbEntity
  8
0
370
              25
  6
Continuous
 62
               7
100
AcDbVertex
100
AcDb2dVertex
 10
129.70854656664
 20
196.32743451732
 30
0.0
  0
VERTEX
  5
36B
100
AcDbEntity
  8
0
370
              25
  6
Continuous
 62
               7
100
AcDbVertex
100
AcDb2dVertex
 10
126.15894630746
 20
195.72303633318
 30
0.0
  0
VERTEX
  5
36C
100
AcDbEntity
  8
0
370
              25
  6
Continuous
 62
               7
100
AcDbVertex
100
AcDb2dVertex
 10
122.73813541477999
 20
194.95509944131999
 30
0.0
  0
VERTEX
  5
36D
100
AcDbEntity
  8
0
370
              25
  6
Continuous
 62
               7
100
AcDbVertex
100
AcDb2dVertex
 10
119.47617734637998
 20
194.03037186227999
 30
0.0
  0
VERTEX
  5
36E
100
AcDbEntity
  8
0
370
              25
  6
Continuous
 62
               7
100
AcDbVertex
100
AcDb2dVertex
 10
116.40173550695999
 20
192.95698008983999
 30
0.0
  0
VERTEX
  5
36F
100
AcDbEntity
  8
0
370
              25
  6
Continuous
 62
               7
100
AcDbVertex
100
AcDb2dVertex
 10
113.54183351023998
 20
191.74435741729999
 30
0.0
  0
VERTEX
  5
370
100
AcDbEntity
  8
0
370
              25
  6
Continuous
 62
               7
100
AcDbVertex
100
AcDb2dVertex
 10
110.92159982513999
 20
190.40316064833999
 30
0.0
  0
VERTEX
  5
371
100
AcDbEntity
  8
0
370
              25
  6
Continuous
 62
               7
100
AcDbVertex
100
AcDb2dVertex
 10
108.56406707767998
 20
188.9451745092
 30
0.0
  0
VERTEX
  5
372
100
AcDbEntity
  8
0
370
              25
  6
Continuous
 62
               7
100
AcDbVertex
100
AcDb2dVertex
 10
106.48994411899999
 20
187.38321484165999
 30
0.0
  0
VERTEX
  5
373
100
AcDbEntity
  8
0
370
              25
  6
Continuous
 62
               7
100
AcDbVertex
100
AcDb2dVertex
 10
104.71746576149998
 20
185.73100592358
 30
0.0
  0
VERTEX
  5
374
100
AcDbEntity
  8
0
370
              25
  6
Continuous
 62
               7
100
AcDbVertex
100
AcDb2dVertex
 10
103.26220678225998
 20
184.00306781227999
 30
0.0
  0
VERTEX
  5
375
100
AcDbEntity
  8
0
370
              25
  6
Continuous
 62
               7
100
AcDbVertex
100
AcDb2dVertex
 10
102.13695709219999
 20
182.21458588759998
 30
0.0
  0
VERTEX
  5
376
100
AcDbEntity
  8
0
370
              25
  6
Continuous
 62
               7
100
AcDbVertex
100
AcDb2dVertex
 10
101.35159895247999
 20
180.38127845186
 30
0.0
  0
VERTEX
  5
377
100
AcDbEntity
  8
0
370
              25
  6
Continuous
 62
               7
100
AcDbVertex
100
AcDb2dVertex
 10
100.91304261089999
 20
178.51925528996
 30
0.0
  0
VERTEX
  5
378
100
AcDbEntity
  8
0
370
              25
  6
Continuous
 62
               7
100
AcDbVertex
100
AcDb2dVertex
 10
100.835245116
 20
177.76324959597997
 30
0.0
  0
SEQEND
  5
379
100
AcDbEntity
  8
0
370
              25
  6
Continuous
 62
               7
  0
POLYLINE
  5
37A
100
AcDbEntity
  8
0
370
              25
  6
Continuous
 62
               7
100
AcDb2dPolyline
 66
               1
 10
0.0
 20
0.0
 30
0.0
 75
               5
  0
VERTEX
  5
37B
100
AcDbEntity
  8
0
370
              25
  6
Continuous
 62
               7
100
AcDbVertex
100
AcDb2dVertex
 10
180.7901748299
 20
177.80603216217997
 30
0.0
  0
VERTEX
  5
37C
100
AcDbEntity
  8
0
370
              25
  6
Continuous
 62
               7
100
AcDbVertex
100
AcDb2dVertex
 10
180.71525008515999
 20
178.51925426380001
 30
0.0
  0
VERTEX
  5
37D
100
AcDbEntity
  8
0
370
              25
  6
Continuous
 62
               7
100
AcDbVertex
100
AcDb2dVertex
 10
180.27669296633999
 20
180.38127834263997
 30
0.0
  0
VERTEX
  5
37E
100
AcDbEntity
  8
0
370
              25
  6
Continuous
 62
               7
100
AcDbVertex
100
AcDb2dVertex
 10
179.49133710754001
 20
182.21458613144
 30
0.0
  0
VERTEX
  5
37F
100
AcDbEntity
  8
0
370
              25
  6
Continuous
 62
               7
100
AcDbVertex
100
AcDb2dVertex
 10
178.36608676978
 20
184.00306778688
 30
0.0
  0
VERTEX
  5
380
100
AcDbEntity
  8
0
370
              25
  6
Continuous
 62
               7
100
AcDbVertex
100
AcDb2dVertex
 10
176.91082565948
 20
185.73100513364
 30
0.0
  0
VERTEX
  5
381
100
AcDbEntity
  8
0
370
              25
  6
Continuous
 62
               7
100
AcDbVertex
100
AcDb2dVertex
 10
175.13834820875999
 20
187.38321517947998
 30
0.0
  0
VERTEX
  5
382
100
AcDbEntity
  8
0
370
              25
  6
Continuous
 62
               7
100
AcDbVertex
100
AcDb2dVertex
 10
173.06422692394
 20
188.94517550995999
 30
0.0
  0
VERTEX
  5
383
100
AcDbEntity
  8
0
370
              25
  6
Continuous
 62
               7
100
AcDbVertex
100
AcDb2dVertex
 10
170.70669182698001
 20
190.40316018098
 30
0.0
  0
VERTEX
  5
384
100
AcDbEntity
  8
0
370
              25
  6
Continuous
 62
               7
100
AcDbVertex
100
AcDb2dVertex
 10
168.08645941187999
 20
191.74435792783999
 30
0.0
  0
VERTEX
  5
385
100
AcDbEntity
  8
0
370
              25
  6
Continuous
 62
               7
100
AcDbVertex
100
AcDb2dVertex
 10
165.22655748373998
 20
192.95698078833999
 30
0.0
  0
VERTEX
  5
386
100
AcDbEntity
  8
0
370
              25
  6
Continuous
 62
               7
100
AcDbVertex
100
AcDb2dVertex
 10
162.15211691939999
 20
194.03037153969998
 30
0.0
  0
VERTEX
  5
387
100
AcDbEntity
  8
0
370
              25
  6
Continuous
 62
               7
100
AcDbVertex
100
AcDb2dVertex
 10
158.89015890433998
 20
194.95509953784
 30
0.0
  0
VERTEX
  5
388
100
AcDbEntity
  8
0
370
              25
  6
Continuous
 62
               7
100
AcDbVertex
100
AcDb2dVertex
 10
155.4693476205
 20
195.72303639667999
 30
0.0
  0
VERTEX
  5
389
100
AcDbEntity
  8
0
370
              25
  6
Continuous
 62
               7
100
AcDbVertex
100
AcDb2dVertex
 10
151.91974725463999
 20
196.32743475099997
 30
0.0
  0
VERTEX
  5
38A
100
AcDbEntity
  8
0
370
              25
  6
Continuous
 62
               7
100
AcDbVertex
100
AcDb2dVertex
 10
148.2725484124
 20
196.76298141356
 30
0.0
  0
VERTEX
  5
38B
100
AcDbEntity
  8
0
370
              25
  6
Continuous
 62
               7
100
AcDbVertex
100
AcDb2dVertex
 10
144.55980586838001
 20
197.02584943493997
 30
0.0
  0
VERTEX
  5
38C
100
AcDbEntity
  8
0
370
              25
  6
Continuous
 62
               7
100
AcDbVertex
100
AcDb2dVertex
 10
140.81414685221998
 20
197.11373067649998
 30
0.0
  0
SEQEND
  5
38D
100
AcDbEntity
  8
0
370
              25
  6
Continuous
 62
               7
  0
POLYLINE
  5
38E
100
AcDbEntity
  8
0
370
              25
  6
Continuous
 62
               7
100
AcDb2dPolyline
 66
               1
 10
0.0
 20
0.0
 30
0.0
 75
               5
  0
VERTEX
  5
38F
100
AcDbEntity
  8
0
370
              25
  6
Continuous
 62
               7
100
AcDbVertex
100
AcDb2dVertex
 10
110.00619326123999
 20
103.93207310826
 30
0.0
  0
VERTEX
  5
390
100
AcDbEntity
  8
0
370
              25
  6
Continuous
 62
               7
100
AcDbVertex
100
AcDb2dVertex
 10
110.69115006506
 20
103.13971646590001
 30
0.0
  0
VERTEX
  5
391
100
AcDbEntity
  8
0
370
              25
  6
Continuous
 62
               7
100
AcDbVertex
100
AcDb2dVertex
 10
111.54465565293998
 20
102.58630000351999
 30
0.0
  0
VERTEX
  5
392
100
AcDbEntity
  8
0
370
              25
  6
Continuous
 62
               7
100
AcDbVertex
100
AcDb2dVertex
 10
112.45143929530001
 20
102.3465561269
 30
0.0
  0
VERTEX
  5
393
100
AcDbEntity
  8
0
370
              25
  6
Continuous
 62
               7
100
AcDbVertex
100
AcDb2dVertex
 10
113.28903484641999
 20
102.45286321934
 30
0.0
  0
VERTEX
  5
394
100
AcDbEntity
  8
0
370
              25
  6
Continuous
 62
               7
100
AcDbVertex
100
AcDb2dVertex
 10
113.94432022622
 20
102.89087113174
 30
0.0
  0
VERTEX
  5
395
100
AcDbEntity
  8
0
370
              25
  6
Continuous
 62
               7
100
AcDbVertex
100
AcDb2dVertex
 10
114.32879588602
 20
103.60141403119998
 30
0.0
  0
VERTEX
  5
396
100
AcDbEntity
  8
0
370
              25
  6
Continuous
 62
               7
100
AcDbVertex
100
AcDb2dVertex
 10
114.39053600384
 20
104.48853918353998
 30
0.0
  0
VERTEX
  5
397
100
AcDbEntity
  8
0
370
              25
  6
Continuous
 62
               7
100
AcDbVertex
100
AcDb2dVertex
 10
114.12120206956
 20
105.43243249513999
 30
0.0
  0
VERTEX
  5
398
100
AcDbEntity
  8
0
370
              25
  6
Continuous
 62
               7
100
AcDbVertex
100
AcDb2dVertex
 10
113.55716954256
 20
106.30561140917999
 30
0.0
  0
VERTEX
  5
399
100
AcDbEntity
  8
0
370
              25
  6
Continuous
 62
               7
100
AcDbVertex
100
AcDb2dVertex
 10
112.77461380516
 20
106.99015182063999
 30
0.0
  0
VERTEX
  5
39A
100
AcDbEntity
  8
0
370
              25
  6
Continuous
 62
               7
100
AcDbVertex
100
AcDb2dVertex
 10
111.8792234979
 20
107.39360753391999
 30
0.0
  0
VERTEX
  5
39B
100
AcDbEntity
  8
0
370
              25
  6
Continuous
 62
               7
100
AcDbVertex
100
AcDb2dVertex
 10
110.99192600402
 20
107.46148036235999
 30
0.0
  0
VERTEX
  5
39C
100
AcDbEntity
  8
0
370
              25
  6
Continuous
 62
               7
100
AcDbVertex
100
AcDb2dVertex
 10
110.23255567618
 20
107.18460598087999
 30
0.0
  0
VERTEX
  5
39D
100
AcDbEntity
  8
0
370
              25
  6
Continuous
 62
               7
100
AcDbVertex
100
AcDb2dVertex
 10
109.70367003596
 20
106.60038667942
 30
0.0
  0
VERTEX
  5
39E
100
AcDbEntity
  8
0
370
              25
  6
Continuous
 62
               7
100
AcDbVertex
100
AcDb2dVertex
 10
109.47669746475999
 20
105.78771164487999
 30
0.0
  0
VERTEX
  5
39F
100
AcDbEntity
  8
0
370
              25
  6
Continuous
 62
               7
100
AcDbVertex
100
AcDb2dVertex
 10
109.58229227261999
 20
104.85634607047999
 30
0.0
  0
VERTEX
  5
3A0
100
AcDbEntity
  8
0
370
              25
  6
Continuous
 62
               7
100
AcDbVertex
100
AcDb2dVertex
 10
110.00619326123999
 20
103.93207310826
 30
0.0
  0
SEQEND
  5
3A1
100
AcDbEntity
  8
0
370
              25
  6
Continuous
 62
               7
  0
ARC
  5
3A2
100
AcDbEntity
  8
0
370
              25
  6
Continuous
 62
               7
100
AcDbCircle
 10
120.40103537473999
 20
100.32911648893999
 30
0.0
 40
8.9084515224723582
100
AcDbArc
 50
153.07326226689997
 51
158.87848737469997
  0
ARC
  5
3A3
100
AcDbEntity
  8
0
370
              25
  6
Continuous
 62
               7
100
AcDbCircle
 10
117.31545343821999
 20
108.18291320955998
 30
0.0
 40
6.1790342481139895
100
AcDbArc
 50
207.53948817239998
 51
218.18148234669997
  0
ARC
  5
3A4
100
AcDbEntity
  8
0
370
              25
  6
Continuous
 62
               7
100
AcDbCircle
 10
112.19388296764001
 20
111.47528121206
 30
0.0
 40
6.1596786478387378
100
AcDbArc
 50
257.37345939519992
 51
266.67431920029998
  0
ARC
  5
3A5
100
AcDbEntity
  8
0
370
              25
  6
Continuous
 62
               7
100
AcDbCircle
 10
118.79009258951999
 20
101.43035629052
 30
0.0
 40
8.9084876038492631
100
AcDbArc
 50
153.07327403319994
 51
158.87847560840001
  0
ARC
  5
3A6
100
AcDbEntity
  8
0
370
              25
  6
Continuous
 62
               7
100
AcDbCircle
 10
115.95960246438
 20
107.49783468893999
 30
0.0
 40
6.1797536160498199
100
AcDbArc
 50
207.54010936150001
 51
218.18086115769998
  0
ARC
  5
3A7
100
AcDbEntity
  8
0
370
              25
  6
Continuous
 62
               7
100
AcDbCircle
 10
112.44864068011999
 20
109.69026745671999
 30
0.0
 40
6.1614009670720167
100
AcDbArc
 50
257.37476220799999
 51
266.67301638749996
  0
POLYLINE
  5
3A8
100
AcDbEntity
  8
0
370
              25
  6
Continuous
 62
               7
100
AcDb2dPolyline
 66
               1
 10
0.0
 20
0.0
 30
0.0
 75
               5
  0
VERTEX
  5
3A9
100
AcDbEntity
  8
0
370
              25
  6
Continuous
 62
               7
100
AcDbVertex
100
AcDb2dVertex
 10
114.05490913889999
 20
102.97097544447999
 30
0.0
  0
VERTEX
  5
3AA
100
AcDbEntity
  8
0
370
              25
  6
Continuous
 62
               7
100
AcDbVertex
100
AcDb2dVertex
 10
114.19432073206001
 20
103.10737792249999
 30
0.0
  0
VERTEX
  5
3AB
100
AcDbEntity
  8
0
370
              25
  6
Continuous
 62
               7
100
AcDbVertex
100
AcDb2dVertex
 10
114.5787963944
 20
103.81792082195999
 30
0.0
  0
VERTEX
  5
3AC
100
AcDbEntity
  8
0
370
              25
  6
Continuous
 62
               7
100
AcDbVertex
100
AcDb2dVertex
 10
114.64053650968
 20
104.70504597175999
 30
0.0
  0
VERTEX
  5
3AD
100
AcDbEntity
  8
0
370
              25
  6
Continuous
 62
               7
100
AcDbVertex
100
AcDb2dVertex
 10
114.37120257539998
 20
105.6489392859
 30
0.0
  0
VERTEX
  5
3AE
100
AcDbEntity
  8
0
370
              25
  6
Continuous
 62
               7
100
AcDbVertex
100
AcDb2dVertex
 10
113.8071700484
 20
106.52211819739999
 30
0.0
  0
VERTEX
  5
3AF
100
AcDbEntity
  8
0
370
              25
  6
Continuous
 62
               7
100
AcDbVertex
100
AcDb2dVertex
 10
113.02461431099998
 20
107.20665860886
 30
0.0
  0
VERTEX
  5
3B0
100
AcDbEntity
  8
0
370
              25
  6
Continuous
 62
               7
100
AcDbVertex
100
AcDb2dVertex
 10
112.12922400373999
 20
107.61011432467998
 30
0.0
  0
VERTEX
  5
3B1
100
AcDbEntity
  8
0
370
              25
  6
Continuous
 62
               7
100
AcDbVertex
100
AcDb2dVertex
 10
111.24192650985999
 20
107.67798715057999
 30
0.0
  0
VERTEX
  5
3B2
100
AcDbEntity
  8
0
370
              25
  6
Continuous
 62
               7
100
AcDbVertex
100
AcDb2dVertex
 10
110.48255618201999
 20
107.40111277163999
 30
0.0
  0
VERTEX
  5
3B3
100
AcDbEntity
  8
0
370
              25
  6
Continuous
 62
               7
100
AcDbVertex
100
AcDb2dVertex
 10
110.32338312978
 20
107.27976445198
 30
0.0
  0
SEQEND
  5
3B4
100
AcDbEntity
  8
0
370
              25
  6
Continuous
 62
               7
  0
LINE
  5
3B5
100
AcDbEntity
  8
0
370
              25
  6
Continuous
 62
               7
100
AcDbLine
 10
111.11197719394001
 20
105.41085209379999
 30
0.0
 11
110.95000108151999
 21
105.04745781678
 31
0.0
  0
LINE
  5
3B6
100
AcDbEntity
  8
0
370
              25
  6
Continuous
 62
               7
100
AcDbLine
 10
110.95000108151999
 20
105.04745781678
 30
0.0
 11
110.48009296368001
 21
104.64050544806
 31
0.0
  0
LINE
  5
3B7
100
AcDbEntity
  8
0
370
              25
  6
Continuous
 62
               7
100
AcDbLine
 10
110.95000108151999
 20
105.04745781678
 30
0.0
 11
111.57183232198
 21
104.08479796409999
 31
0.0
  0
LINE
  5
3B8
100
AcDbEntity
  8
0
370
              25
  6
Continuous
 62
               7
100
AcDbLine
 10
111.57183232198
 20
104.08479796409999
 30
0.0
 11
112.27786646998
 21
103.98587354676
 31
0.0
  0
LINE
  5
3B9
100
AcDbEntity
  8
0
370
              25
  6
Continuous
 62
               7
100
AcDbLine
 10
111.57183232198
 20
104.08479796409999
 30
0.0
 11
111.10192420413999
 21
103.67784559792
 31
0.0
  0
POLYLINE
  5
3BA
100
AcDbEntity
  8
0
370
              25
  6
Continuous
 62
               7
100
AcDb2dPolyline
 66
               1
 10
0.0
 20
0.0
 30
0.0
 75
               5
  0
VERTEX
  5
3BB
100
AcDbEntity
  8
0
370
              25
  6
Continuous
 62
               7
100
AcDbVertex
100
AcDb2dVertex
 10
198.06414613406
 20
127.26457158414
 30
0.0
  0
VERTEX
  5
3BC
100
AcDbEntity
  8
0
370
              25
  6
Continuous
 62
               7
100
AcDbVertex
100
AcDb2dVertex
 10
198.06414733801998
 20
127.06540417703999
 30
0.0
  0
VERTEX
  5
3BD
100
AcDbEntity
  8
0
370
              25
  6
Continuous
 62
               7
100
AcDbVertex
100
AcDb2dVertex
 10
198.06414677667999
 20
127.0653441162
 30
0.0
  0
SEQEND
  5
3BE
100
AcDbEntity
  8
0
370
              25
  6
Continuous
 62
               7
  0
POLYLINE
  5
3BF
100
AcDbEntity
  8
0
370
              25
  6
Continuous
 62
               7
100
AcDb2dPolyline
 66
               1
 10
0.0
 20
0.0
 30
0.0
 75
               5
  0
VERTEX
  5
3C0
100
AcDbEntity
  8
0
370
              25
  6
Continuous
 62
               7
100
AcDbVertex
100
AcDb2dVertex
 10
198.06414763773998
 20
132.38351617731999
 30
0.0
  0
VERTEX
  5
3C1
100
AcDbEntity
  8
0
370
              25
  6
Continuous
 62
               7
100
AcDbVertex
100
AcDb2dVertex
 10
198.06414451608001
 20
132.34819775925999
 30
0.0
  0
VERTEX
  5
3C2
100
AcDbEntity
  8
0
370
              25
  6
Continuous
 62
               7
100
AcDbVertex
100
AcDb2dVertex
 10
198.06414631694
 20
131.64764812657998
 30
0.0
  0
VERTEX
  5
3C3
100
AcDbEntity
  8
0
370
              25
  6
Continuous
 62
               7
100
AcDbVertex
100
AcDb2dVertex
 10
198.06414556255999
 20
130.71313979747998
 30
0.0
  0
VERTEX
  5
3C4
100
AcDbEntity
  8
0
370
              25
  6
Continuous
 62
               7
100
AcDbVertex
100
AcDb2dVertex
 10
198.06414787396
 20
129.67089176767999
 30
0.0
  0
VERTEX
  5
3C5
100
AcDbEntity
  8
0
370
              25
  6
Continuous
 62
               7
100
AcDbVertex
100
AcDb2dVertex
 10
198.06414623311997
 20
128.66165316639999
 30
0.0
  0
VERTEX
  5
3C6
100
AcDbEntity
  8
0
370
              25
  6
Continuous
 62
               7
100
AcDbVertex
100
AcDb2dVertex
 10
198.06414714243999
 20
127.82173534916001
 30
0.0
  0
VERTEX
  5
3C7
100
AcDbEntity
  8
0
370
              25
  6
Continuous
 62
               7
100
AcDbVertex
100
AcDb2dVertex
 10
198.06414613406
 20
127.26457158414
 30
0.0
  0
SEQEND
  5
3C8
100
AcDbEntity
  8
0
370
              25
  6
Continuous
 62
               7
  0
POLYLINE
  5
3C9
100
AcDbEntity
  8
0
370
              25
  6
Continuous
 62
               7
100
AcDb2dPolyline
 66
               1
 10
0.0
 20
0.0
 30
0.0
 75
               5
  0
VERTEX
  5
3CA
100
AcDbEntity
  8
0
370
              25
  6
Continuous
 62
               7
100
AcDbVertex
100
AcDb2dVertex
 10
198.5641465082
 20
127.26457176955999
 30
0.0
  0
VERTEX
  5
3CB
100
AcDbEntity
  8
0
370
              25
  6
Continuous
 62
               7
100
AcDbVertex
100
AcDb2dVertex
 10
198.5641477147
 20
127.06540435992
 30
0.0
  0
VERTEX
  5
3CC
100
AcDbEntity
  8
0
370
              25
  6
Continuous
 62
               7
100
AcDbVertex
100
AcDb2dVertex
 10
198.56414715081999
 20
127.06534429907998
 30
0.0
  0
SEQEND
  5
3CD
100
AcDbEntity
  8
0
370
              25
  6
Continuous
 62
               7
  0
POLYLINE
  5
3CE
100
AcDbEntity
  8
0
370
              25
  6
Continuous
 62
               7
100
AcDb2dPolyline
 66
               1
 10
0.0
 20
0.0
 30
0.0
 75
               5
  0
VERTEX
  5
3CF
100
AcDbEntity
  8
0
370
              25
  6
Continuous
 62
               7
100
AcDbVertex
100
AcDb2dVertex
 10
198.56414564968
 20
132.76534487263999
 30
0.0
  0
VERTEX
  5
3D0
100
AcDbEntity
  8
0
370
              25
  6
Continuous
 62
               7
100
AcDbVertex
100
AcDb2dVertex
 10
198.56414726257998
 20
132.72017228581998
 30
0.0
  0
VERTEX
  5
3D1
100
AcDbEntity
  8
0
370
              25
  6
Continuous
 62
               7
100
AcDbVertex
100
AcDb2dVertex
 10
198.56414489022001
 20
132.34819794467998
 30
0.0
  0
VERTEX
  5
3D2
100
AcDbEntity
  8
0
370
              25
  6
Continuous
 62
               7
100
AcDbVertex
100
AcDb2dVertex
 10
198.56414669108
 20
131.647648312
 30
0.0
  0
VERTEX
  5
3D3
100
AcDbEntity
  8
0
370
              25
  6
Continuous
 62
               7
100
AcDbVertex
100
AcDb2dVertex
 10
198.56414593924001
 20
130.7131399829
 30
0.0
  0
VERTEX
  5
3D4
100
AcDbEntity
  8
0
370
              25
  6
Continuous
 62
               7
100
AcDbVertex
100
AcDb2dVertex
 10
198.5641482481
 20
129.67089195309998
 30
0.0
  0
VERTEX
  5
3D5
100
AcDbEntity
  8
0
370
              25
  6
Continuous
 62
               7
100
AcDbVertex
100
AcDb2dVertex
 10
198.56414660979999
 20
128.66165334927999
 30
0.0
  0
VERTEX
  5
3D6
100
AcDbEntity
  8
0
370
              25
  6
Continuous
 62
               7
100
AcDbVertex
100
AcDb2dVertex
 10
198.56414751911998
 20
127.82173553203999
 30
0.0
  0
VERTEX
  5
3D7
100
AcDbEntity
  8
0
370
              25
  6
Continuous
 62
               7
100
AcDbVertex
100
AcDb2dVertex
 10
198.5641465082
 20
127.26457176955999
 30
0.0
  0
SEQEND
  5
3D8
100
AcDbEntity
  8
0
370
              25
  6
Continuous
 62
               7
  0
ARC
  5
3D9
100
AcDbEntity
  8
0
370
              25
  6
Continuous
 62
               7
100
AcDbCircle
 10
195.51008556782
 20
130.06227784037998
 30
0.0
 40
4.0345069630370007
100
AcDbArc
 50
357.91295068909989
 51
5.556452071399975
  0
ARC
  5
3DA
100
AcDbEntity
  8
0
370
              25
  6
Continuous
 62
               7
100
AcDbCircle
 10
198.96640342021999
 20
130.84498017895999
 30
0.0
 40
0.5780505063680452
100
AcDbArc
 50
354.62928219399976
 51
21.572365943700333
  0
ARC
  5
3DB
100
AcDbEntity
  8
0
370
              25
  6
Continuous
 62
               7
100
AcDbCircle
 10
197.93602920461998
 20
130.6984999817
 30
0.0
 40
1.6085120202270353
100
AcDbArc
 50
347.10315112180029
 51
12.89689547400036
  0
ARC
  5
3DC
100
AcDbEntity
  8
0
370
              25
  6
Continuous
 62
               7
100
AcDbCircle
 10
195.51067016406
 20
129.76839860848
 30
0.0
 40
4.0339232214608538
100
AcDbArc
 50
351.86131370749996
 51
8.1387715680000952
  0
ARC
  5
3DD
100
AcDbEntity
  8
0
370
              25
  6
Continuous
 62
               7
100
AcDbCircle
 10
198.97168034641999
 20
128.98579973426001
 30
0.0
 40
0.5727709737721612
100
AcDbArc
 50
345.27261050360039
 51
21.671741133899449
  0
ARC
  5
3DE
100
AcDbEntity
  8
0
370
              25
  6
Continuous
 62
               7
100
AcDbCircle
 10
197.94248535629998
 20
129.13212069383999
 30
0.0
 40
1.6020935869361907
100
AcDbArc
 50
356.69706393050035
 51
8.8199073038998126
  0
LINE
  5
3DF
100
AcDbEntity
  8
0
370
              25
  6
Continuous
 62
               7
100
AcDbLine
 10
178.21361936833998
 20
104.66136168015998
 30
0.0
 11
178.05065775369999
 21
104.70840464678
 31
0.0
  0
LINE
  5
3E0
100
AcDbEntity
  8
0
370
              25
  6
Continuous
 62
               7
100
AcDbLine
 10
180.16974412511999
 20
103.04285132561999
 30
0.0
 11
180.7864764121
 21
103.57695715352
 31
0.0
  0
ARC
  5
3E1
100
AcDbEntity
  8
0
370
              25
  6
Continuous
 62
               7
100
AcDbCircle
 10
179.71900671061999
 20
103.67888282724
 30
0.0
 40
0.7795513379898066
100
AcDbArc
 50
219.41478378050004
 51
305.32411433920032
  0
LINE
  5
3E2
100
AcDbEntity
  8
0
370
              25
  6
Continuous
 62
               7
100
AcDbLine
 10
178.80838276859998
 20
103.84196828719999
 30
0.0
 11
179.11674891335997
 21
103.18392239221998
 31
0.0
  0
ARC
  5
3E3
100
AcDbEntity
  8
0
370
              25
  6
Continuous
 62
               7
100
AcDbCircle
 10
182.90185101547999
 20
104.79171136611998
 30
0.0
 40
4.2022011122342606
100
AcDbArc
 50
177.25938367210003
 51
193.06232735909995
  0
LINE
  5
3E4
100
AcDbEntity
  8
0
370
              25
  6
Continuous
 62
               7
100
AcDbLine
 10
181.83947162385999
 20
105.54186942892001
 30
0.0
 11
182.12133628492001
 21
106.63157026957998
 31
0.0
  0
ARC
  5
3E5
100
AcDbEntity
  8
0
370
              25
  6
Continuous
 62
               7
100
AcDbCircle
 10
175.99397840250001
 20
107.40985958675999
 30
0.0
 40
6.1367074419111391
100
AcDbArc
 50
321.34818208680002
 51
342.27816107529998
  0
SPLINE
  5
3E6
100
AcDbEntity
  8
0
370
              25
  6
Continuous
 62
               7
100
AcDbSpline
210
0.0
220
0.0
230
1.0
 70
               8
 71
               2
 72
              12
 73
               9
 74
               0
 42
0.000001
 43
0.000001
 40
0.0
 40
0.0
 40
0.0
 40
1.0
 40
1.0
 40
2.0
 40
3.0
 40
4.0
 40
4.0
 40
5.0
 40
5.0
 40
5.0
 10
178.80838276948145
 20
103.84196828742816
 30
0.0
 10
178.80832234347483
 20
103.84206768504728
 30
0.0
 10
178.8082619174682
 20
103.84216708266639
 30
0.0
 10
178.73785550082539
 20
103.95898766490274
 30
0.0
 10
178.58776865418415
 20
104.17493536456237
 30
0.0
 10
178.37079663587895
 20
104.46319753488984
 30
0.0
 10
178.21605587188716
 20
104.6582692648019
 30
0.0
 10
178.21483761981253
 20
104.65981547264701
 30
0.0
 10
178.21361936773789
 20
104.66136168049213
 30
0.0
  0
SPLINE
  5
3E7
100
AcDbEntity
  8
0
370
              25
  6
Continuous
 62
               7
100
AcDbSpline
210
0.0
220
0.0
230
1.0
 70
               8
 71
               2
 72
              13
 73
              10
 74
               0
 42
0.000001
 43
0.000001
 40
0.0
 40
0.0
 40
0.0
 40
1.0
 40
1.0
 40
2.0
 40
3.0
 40
4.0
 40
5.0
 40
5.0
 40
6.0
 40
6.0
 40
6.0
 10
179.22398235793841
 20
102.50527309351872
 30
0.0
 10
179.22397753449033
 20
102.50557800885707
 30
0.0
 10
179.22397271104225
 20
102.50588292419543
 30
0.0
 10
179.22353429015567
 20
102.57453346672153
 30
0.0
 10
179.21558115936605
 20
102.71401812431766
 30
0.0
 10
179.18679977012368
 20
102.8964628161979
 30
0.0
 10
179.13947889742636
 20
103.09475715275904
 30
0.0
 10
179.11719974235979
 20
103.18214059399752
 30
0.0
 10
179.11697432749298
 20
103.18303149341058
 30
0.0
 10
179.11674891262615
 20
103.18392239282365
 30
0.0
  0
LINE
  5
3E8
100
AcDbEntity
  8
0
370
              25
  6
Continuous
 62
               7
100
AcDbLine
 10
179.22398235903998
 20
102.50527309419998
 30
0.0
 11
177.04287704129999
 21
103.13490396345999
 31
0.0
  0
LINE
  5
3E9
100
AcDbEntity
  8
0
370
              25
  6
Continuous
 62
               7
100
AcDbLine
 10
176.58906450467998
 20
104.10332614904
 30
0.0
 11
177.04287704129999
 21
103.13490396345999
 31
0.0
  0
SPLINE
  5
3EA
100
AcDbEntity
  8
0
370
              25
  6
Continuous
 62
               7
100
AcDbSpline
210
0.0
220
0.0
230
1.0
 70
               8
 71
               2
 72
              12
 73
               9
 74
               0
 42
0.000001
 43
0.000001
 40
0.0
 40
0.0
 40
0.0
 40
1.0
 40
1.0
 40
2.0
 40
3.0
 40
4.0
 40
4.0
 40
5.0
 40
5.0
 40
5.0
 10
180.16974412500227
 20
103.04285132535283
 30
0.0
 10
180.16920848701892
 20
103.04249334358053
 30
0.0
 10
180.1686728490356
 20
103.04213536180825
 30
0.0
 10
180.10348763524479
 20
102.99839260029928
 30
0.0
 10
179.81722442007739
 20
102.81112336637771
 30
0.0
 10
179.39944808693991
 20
102.59296833779723
 30
0.0
 10
179.22680335696376
 20
102.50669139045476
 30
0.0
 10
179.22539285745108
 20
102.50598224198674
 30
0.0
 10
179.22398235793841
 20
102.50527309351872
 30
0.0
  0
SPLINE
  5
3EB
100
AcDbEntity
  8
0
370
              25
  6
Continuous
 62
               7
100
AcDbSpline
210
0.0
220
0.0
230
1.0
 70
               8
 71
               2
 72
              12
 73
               9
 74
               0
 42
0.000001
 43
0.000001
 40
0.0
 40
0.0
 40
0.0
 40
1.0
 40
1.0
 40
2.0
 40
3.0
 40
4.0
 40
4.0
 40
5.0
 40
5.0
 40
5.0
 10
181.07186449931811
 20
103.95584420231613
 30
0.0
 10
181.07182125028731
 20
103.95576759828036
 30
0.0
 10
181.07177800125652
 20
103.95569099424459
 30
0.0
 10
181.03579319733788
 20
103.89000642484591
 30
0.0
 10
180.94371338341801
 20
103.76137223828185
 30
0.0
 10
180.84021499416869
 20
103.63820434797459
 30
0.0
 10
180.78733890251982
 20
103.57794573172471
 30
0.0
 10
180.78690765690567
 20
103.57745144216911
 30
0.0
 10
180.78647641129155
 20
103.5769571526135
 30
0.0
  0
ARC
  5
3EC
100
AcDbEntity
  8
0
370
              25
  6
Continuous
 62
               7
100
AcDbCircle
 10
177.34135904022
 20
104.33767006948
 30
0.0
 40
1.0074470116541514
100
AcDbArc
 50
198.26574735620019
 51
250.15230842260058
  0
POLYLINE
  5
3ED
100
AcDbEntity
  8
0
370
              25
  6
Continuous
 62
               7
100
AcDb2dPolyline
 66
               1
 10
0.0
 20
0.0
 30
0.0
 75
               5
  0
VERTEX
  5
3EE
100
AcDbEntity
  8
0
370
              25
  6
Continuous
 62
               7
100
AcDbVertex
100
AcDb2dVertex
 10
175.83610910177998
 20
103.8071267262
 30
0.0
  0
VERTEX
  5
3EF
100
AcDbEntity
  8
0
370
              25
  6
Continuous
 62
               7
100
AcDbVertex
100
AcDb2dVertex
 10
176.07042089883998
 20
103.66143040342
 30
0.0
  0
VERTEX
  5
3F0
100
AcDbEntity
  8
0
370
              25
  6
Continuous
 62
               7
100
AcDbVertex
100
AcDb2dVertex
 10
176.13328249524
 20
103.64006744132
 30
0.0
  0
SEQEND
  5
3F1
100
AcDbEntity
  8
0
370
              25
  6
Continuous
 62
               7
  0
POLYLINE
  5
3F2
100
AcDbEntity
  8
0
370
              25
  6
Continuous
 62
               7
100
AcDb2dPolyline
 66
               1
 10
0.0
 20
0.0
 30
0.0
 75
               5
  0
VERTEX
  5
3F3
100
AcDbEntity
  8
0
370
              25
  6
Continuous
 62
               7
100
AcDbVertex
100
AcDb2dVertex
 10
174.62262198087998
 20
103.35065557665999
 30
0.0
  0
VERTEX
  5
3F4
100
AcDbEntity
  8
0
370
              25
  6
Continuous
 62
               7
100
AcDbVertex
100
AcDb2dVertex
 10
174.80564293309999
 20
102.84692156253999
 30
0.0
  0
VERTEX
  5
3F5
100
AcDbEntity
  8
0
370
              25
  6
Continuous
 62
               7
100
AcDbVertex
100
AcDb2dVertex
 10
175.24266919391999
 20
102.23891699242
 30
0.0
  0
VERTEX
  5
3F6
100
AcDbEntity
  8
0
370
              25
  6
Continuous
 62
               7
100
AcDbVertex
100
AcDb2dVertex
 10
175.81221287829999
 20
101.97520682133998
 30
0.0
  0
VERTEX
  5
3F7
100
AcDbEntity
  8
0
370
              25
  6
Continuous
 62
               7
100
AcDbVertex
100
AcDb2dVertex
 10
176.47546047992
 20
102.07375475988
 30
0.0
  0
VERTEX
  5
3F8
100
AcDbEntity
  8
0
370
              25
  6
Continuous
 62
               7
100
AcDbVertex
100
AcDb2dVertex
 10
177.18721287149998
 20
102.52785339702001
 30
0.0
  0
VERTEX
  5
3F9
100
AcDbEntity
  8
0
370
              25
  6
Continuous
 62
               7
100
AcDbVertex
100
AcDb2dVertex
 10
177.62439134690001
 20
102.96703289204
 30
0.0
  0
SEQEND
  5
3FA
100
AcDbEntity
  8
0
370
              25
  6
Continuous
 62
               7
  0
ARC
  5
3FB
100
AcDbEntity
  8
0
370
              25
  6
Continuous
 62
               7
100
AcDbCircle
 10
175.3772696918
 20
103.70614577754
 30
0.0
 40
1.5616847895323969
100
AcDbArc
 50
202.69923691140016
 51
248.13886475040005
  0
ARC
  5
3FC
100
AcDbEntity
  8
0
370
              25
  6
Continuous
 62
               7
100
AcDbCircle
 10
132.27052531618
 20
133.39260132958
 30
0.0
 40
37.867839480252464
100
AcDbArc
 50
236.06648566989998
 51
255.14803737930001
  0
POLYLINE
  5
3FD
100
AcDbEntity
  8
0
370
              25
  6
Continuous
 62
               7
100
AcDb2dPolyline
 66
               1
 10
0.0
 20
0.0
 30
0.0
 75
               5
  0
VERTEX
  5
3FE
100
AcDbEntity
  8
0
370
              25
  6
Continuous
 62
               7
100
AcDbVertex
100
AcDb2dVertex
 10
170.49675244751998
 20
101.97418806544
 30
0.0
  0
VERTEX
  5
3FF
100
AcDbEntity
  8
0
370
              25
  6
Continuous
 62
               7
100
AcDbVertex
100
AcDb2dVertex
 10
170.48305166719999
 20
101.96462134593999
 30
0.0
  0
VERTEX
  5
400
100
AcDbEntity
  8
0
370
              25
  6
Continuous
 62
               7
100
AcDbVertex
100
AcDb2dVertex
 10
168.25629813493998
 20
100.56177879729999
 30
0.0
  0
VERTEX
  5
401
100
AcDbEntity
  8
0
370
              25
  6
Continuous
 62
               7
100
AcDbVertex
100
AcDb2dVertex
 10
165.76526514139999
 20
99.274820515239995
 30
0.0
  0
VERTEX
  5
402
100
AcDbEntity
  8
0
370
              25
  6
Continuous
 62
               7
100
AcDbVertex
100
AcDb2dVertex
 10
163.03393902926001
 20
98.116141102859999
 30
0.0
  0
VERTEX
  5
403
100
AcDbEntity
  8
0
370
              25
  6
Continuous
 62
               7
100
AcDbVertex
100
AcDb2dVertex
 10
160.08862201159999
 20
97.096899763140001
 30
0.0
  0
VERTEX
  5
404
100
AcDbEntity
  8
0
370
              25
  6
Continuous
 62
               7
100
AcDbVertex
100
AcDb2dVertex
 10
156.95768249243997
 20
96.226912100020002
 30
0.0
  0
VERTEX
  5
405
100
AcDbEntity
  8
0
370
              25
  6
Continuous
 62
               7
100
AcDbVertex
100
AcDb2dVertex
 10
153.67127330199997
 20
95.514556994380001
 30
0.0
  0
VERTEX
  5
406
100
AcDbEntity
  8
0
370
              25
  6
Continuous
 62
               7
100
AcDbVertex
100
AcDb2dVertex
 10
150.26104169982
 20
94.966693065979996
 30
0.0
  0
VERTEX
  5
407
100
AcDbEntity
  8
0
370
              25
  6
Continuous
 62
               7
100
AcDbVertex
100
AcDb2dVertex
 10
146.75983057169998
 20
94.58859924507999
 30
0.0
  0
VERTEX
  5
408
100
AcDbEntity
  8
0
370
              25
  6
Continuous
 62
               7
100
AcDbVertex
100
AcDb2dVertex
 10
143.20136161549999
 20
94.383914566819996
 30
0.0
  0
VERTEX
  5
409
100
AcDbEntity
  8
0
370
              25
  6
Continuous
 62
               7
100
AcDbVertex
100
AcDb2dVertex
 10
139.61990079519998
 20
94.354611102439989
 30
0.0
  0
VERTEX
  5
40A
100
AcDbEntity
  8
0
370
              25
  6
Continuous
 62
               7
100
AcDbVertex
100
AcDb2dVertex
 10
136.04994009414
 20
94.500970741139994
 30
0.0
  0
VERTEX
  5
40B
100
AcDbEntity
  8
0
370
              25
  6
Continuous
 62
               7
100
AcDbVertex
100
AcDb2dVertex
 10
132.52586288271999
 20
94.821585019899999
 30
0.0
  0
VERTEX
  5
40C
100
AcDbEntity
  8
0
370
              25
  6
Continuous
 62
               7
100
AcDbVertex
100
AcDb2dVertex
 10
129.08160674609999
 20
95.313365336819999
 30
0.0
  0
VERTEX
  5
40D
100
AcDbEntity
  8
0
370
              25
  6
Continuous
 62
               7
100
AcDbVertex
100
AcDb2dVertex
 10
125.75033907286
 20
95.9715742363
 30
0.0
  0
VERTEX
  5
40E
100
AcDbEntity
  8
0
370
              25
  6
Continuous
 62
               7
100
AcDbVertex
100
AcDb2dVertex
 10
122.56414667207999
 20
96.789876287780004
 30
0.0
  0
SEQEND
  5
40F
100
AcDbEntity
  8
0
370
              25
  6
Continuous
 62
               7
  0
POLYLINE
  5
410
100
AcDbEntity
  8
0
370
              25
  6
Continuous
 62
               7
100
AcDb2dPolyline
 66
               1
 10
0.0
 20
0.0
 30
0.0
 75
               5
  0
VERTEX
  5
411
100
AcDbEntity
  8
0
370
              25
  6
Continuous
 62
               7
100
AcDbVertex
100
AcDb2dVertex
 10
111.46372780615998
 20
19.626648668900003
 30
0.0
  0
VERTEX
  5
412
100
AcDbEntity
  8
0
370
              25
  6
Continuous
 62
               7
100
AcDbVertex
100
AcDb2dVertex
 10
110.47953486471998
 20
20.074995046780003
 30
0.0
  0
VERTEX
  5
413
100
AcDbEntity
  8
0
370
              25
  6
Continuous
 62
               7
100
AcDbVertex
100
AcDb2dVertex
 10
109.60199452175999
 20
20.803220019080001
 30
0.0
  0
VERTEX
  5
414
100
AcDbEntity
  8
0
370
              25
  6
Continuous
 62
               7
100
AcDbVertex
100
AcDb2dVertex
 10
108.92620182711998
 20
21.732410149519993
 30
0.0
  0
VERTEX
  5
415
100
AcDbEntity
  8
0
370
              25
  6
Continuous
 62
               7
100
AcDbVertex
100
AcDb2dVertex
 10
108.52538931404
 20
22.761875098459996
 30
0.0
  0
VERTEX
  5
416
100
AcDbEntity
  8
0
370
              25
  6
Continuous
 62
               7
100
AcDbVertex
100
AcDb2dVertex
 10
108.44299166323999
 20
23.780055525899996
 30
0.0
  0
VERTEX
  5
417
100
AcDbEntity
  8
0
370
              25
  6
Continuous
 62
               7
100
AcDbVertex
100
AcDb2dVertex
 10
108.68793737095999
 20
24.676614205219991
 30
0.0
  0
VERTEX
  5
418
100
AcDbEntity
  8
0
370
              25
  6
Continuous
 62
               7
100
AcDbVertex
100
AcDb2dVertex
 10
109.23368331274
 20
25.35439759946
 30
0.0
  0
VERTEX
  5
419
100
AcDbEntity
  8
0
370
              25
  6
Continuous
 62
               7
100
AcDbVertex
100
AcDb2dVertex
 10
110.02108898202
 20
25.739955878380002
 30
0.0
  0
VERTEX
  5
41A
100
AcDbEntity
  8
0
370
              25
  6
Continuous
 62
               7
100
AcDbVertex
100
AcDb2dVertex
 10
110.96482698532
 20
25.791507273880001
 30
0.0
  0
VERTEX
  5
41B
100
AcDbEntity
  8
0
370
              25
  6
Continuous
 62
               7
100
AcDbVertex
100
AcDb2dVertex
 10
111.96262862446
 20
25.503466752679998
 30
0.0
  0
VERTEX
  5
41C
100
AcDbEntity
  8
0
370
              25
  6
Continuous
 62
               7
100
AcDbVertex
100
AcDb2dVertex
 10
112.90636663029998
 20
24.907047965839993
 30
0.0
  0
VERTEX
  5
41D
100
AcDbEntity
  8
0
370
              25
  6
Continuous
 62
               7
100
AcDbVertex
100
AcDb2dVertex
 10
113.69377229958
 20
24.066880812039997
 30
0.0
  0
VERTEX
  5
41E
100
AcDbEntity
  8
0
370
              25
  6
Continuous
 62
               7
100
AcDbVertex
100
AcDb2dVertex
 10
114.23951824136
 20
23.0740108496
 30
0.0
  0
VERTEX
  5
41F
100
AcDbEntity
  8
0
370
              25
  6
Continuous
 62
               7
100
AcDbVertex
100
AcDb2dVertex
 10
114.48446394908001
 20
22.036032699499998
 30
0.0
  0
VERTEX
  5
420
100
AcDbEntity
  8
0
370
              25
  6
Continuous
 62
               7
100
AcDbVertex
100
AcDb2dVertex
 10
114.40206629827999
 20
21.065424579760005
 30
0.0
  0
VERTEX
  5
421
100
AcDbEntity
  8
0
370
              25
  6
Continuous
 62
               7
100
AcDbVertex
100
AcDb2dVertex
 10
114.00125378520001
 20
20.267368842880003
 30
0.0
  0
VERTEX
  5
422
100
AcDbEntity
  8
0
370
              25
  6
Continuous
 62
               7
100
AcDbVertex
100
AcDb2dVertex
 10
113.32546109056
 20
19.728347807639992
 30
0.0
  0
VERTEX
  5
423
100
AcDbEntity
  8
0
370
              25
  6
Continuous
 62
               7
100
AcDbVertex
100
AcDb2dVertex
 10
112.44792074505999
 20
19.506770988919996
 30
0.0
  0
VERTEX
  5
424
100
AcDbEntity
  8
0
370
              25
  6
Continuous
 62
               7
100
AcDbVertex
100
AcDb2dVertex
 10
111.46372780615998
 20
19.626648668900003
 30
0.0
  0
SEQEND
  5
425
100
AcDbEntity
  8
0
370
              25
  6
Continuous
 62
               7
  0
POLYLINE
  5
426
100
AcDbEntity
  8
0
370
              25
  6
Continuous
 62
               7
100
AcDb2dPolyline
 66
               1
 10
0.0
 20
0.0
 30
0.0
 75
               5
  0
VERTEX
  5
427
100
AcDbEntity
  8
0
370
              25
  6
Continuous
 62
               7
100
AcDbVertex
100
AcDb2dVertex
 10
109.77285810434
 20
25.823467004219992
 30
0.0
  0
VERTEX
  5
428
100
AcDbEntity
  8
0
370
              25
  6
Continuous
 62
               7
100
AcDbVertex
100
AcDb2dVertex
 10
109.83410138799999
 20
25.874374905959996
 30
0.0
  0
VERTEX
  5
429
100
AcDbEntity
  8
0
370
              25
  6
Continuous
 62
               7
100
AcDbVertex
100
AcDb2dVertex
 10
110.62150705727998
 20
26.259933184879998
 30
0.0
  0
VERTEX
  5
42A
100
AcDbEntity
  8
0
370
              25
  6
Continuous
 62
               7
100
AcDbVertex
100
AcDb2dVertex
 10
111.56524506057998
 20
26.311484580379997
 30
0.0
  0
VERTEX
  5
42B
100
AcDbEntity
  8
0
370
              25
  6
Continuous
 62
               7
100
AcDbVertex
100
AcDb2dVertex
 10
112.56304670226
 20
26.023444059179994
 30
0.0
  0
VERTEX
  5
42C
100
AcDbEntity
  8
0
370
              25
  6
Continuous
 62
               7
100
AcDbVertex
100
AcDb2dVertex
 10
113.50678470555999
 20
25.427025272340003
 30
0.0
  0
VERTEX
  5
42D
100
AcDbEntity
  8
0
370
              25
  6
Continuous
 62
               7
100
AcDbVertex
100
AcDb2dVertex
 10
114.29419037483999
 20
24.586858118539993
 30
0.0
  0
VERTEX
  5
42E
100
AcDbEntity
  8
0
370
              25
  6
Continuous
 62
               7
100
AcDbVertex
100
AcDb2dVertex
 10
114.83993631661998
 20
23.593988158640002
 30
0.0
  0
VERTEX
  5
42F
100
AcDbEntity
  8
0
370
              25
  6
Continuous
 62
               7
100
AcDbVertex
100
AcDb2dVertex
 10
115.08488202433999
 20
22.556010005999994
 30
0.0
  0
VERTEX
  5
430
100
AcDbEntity
  8
0
370
              25
  6
Continuous
 62
               7
100
AcDbVertex
100
AcDb2dVertex
 10
115.00248437354
 20
21.585401886260001
 30
0.0
  0
VERTEX
  5
431
100
AcDbEntity
  8
0
370
              25
  6
Continuous
 62
               7
100
AcDbVertex
100
AcDb2dVertex
 10
114.60167186045999
 20
20.787346149379999
 30
0.0
  0
VERTEX
  5
432
100
AcDbEntity
  8
0
370
              25
  6
Continuous
 62
               7
100
AcDbVertex
100
AcDb2dVertex
 10
114.3554336585
 20
20.5319645748
 30
0.0
  0
SEQEND
  5
433
100
AcDbEntity
  8
0
370
              25
  6
Continuous
 62
               7
  0
LINE
  5
434
100
AcDbEntity
  8
0
370
              25
  6
Continuous
 62
               7
100
AcDbLine
 10
140.81414625277998
 20
63.375728998859998
 30
0.0
 11
147.31414623725999
 21
65.252117455879997
 31
0.0
  0
LINE
  5
435
100
AcDbEntity
  8
0
370
              25
  6
Continuous
 62
               7
100
AcDbLine
 10
140.81414625277998
 20
67.759193813319996
 30
0.0
 11
140.81414625277998
 21
63.375728998859998
 31
0.0
  0
LINE
  5
436
100
AcDbEntity
  8
0
370
              25
  6
Continuous
 62
               7
100
AcDbLine
 10
142.50018979966001
 20
68.625587556780005
 30
0.0
 11
140.81414625277998
 21
67.759193813319996
 31
0.0
  0
LINE
  5
437
100
AcDbEntity
  8
0
370
              25
  6
Continuous
 62
               7
100
AcDbLine
 10
142.50018979966001
 20
68.625587556780005
 30
0.0
 11
145.62810289357998
 21
69.528538229920002
 31
0.0
  0
SPLINE
  5
438
100
AcDbEntity
  8
0
370
              25
  6
Continuous
 62
               7
100
AcDbSpline
210
0.0
220
0.0
230
1.0
 70
               8
 71
               2
 72
              12
 73
               9
 74
               0
 42
0.000001
 43
0.000001
 40
0.0
 40
0.0
 40
0.0
 40
1.0
 40
1.0
 40
2.0
 40
3.0
 40
4.0
 40
4.0
 40
5.0
 40
5.0
 40
5.0
 10
147.31414623810539
 20
69.635582270539487
 30
0.0
 10
147.31270201861844
 20
69.635569194363825
 30
0.0
 10
147.31125779913148
 20
69.635556118188163
 30
0.0
 10
147.12937787057149
 20
69.634327110569416
 30
0.0
 10
146.61101672057211
 20
69.62332687692323
 30
0.0
 10
145.95341036775289
 20
69.564534188304194
 30
0.0
 10
145.6331829111698
 20
69.529087377435317
 30
0.0
 10
145.6306429026252
 20
69.528812803820202
 30
0.0
 10
145.62810289408057
 20
69.528538230205086
 30
0.0
  0
LINE
  5
439
100
AcDbEntity
  8
0
370
              25
  6
Continuous
 62
               7
100
AcDbLine
 10
147.31414623725999
 20
69.635582270339995
 30
0.0
 11
147.31414623725999
 21
65.252117455879997
 31
0.0
  0
LINE
  5
43A
100
AcDbEntity
  8
0
370
              25
  6
Continuous
 62
               7
100
AcDbLine
 10
145.62810296978
 20
74.254752744960001
 30
0.0
 11
142.50018997237999
 21
75.15770345112
 31
0.0
  0
ARC
  5
43B
100
AcDbEntity
  8
0
370
              25
  6
Continuous
 62
               7
100
AcDbCircle
 10
144.02514296513999
 20
70.700298304479986
 30
0.0
 40
3.8991828822282599
100
AcDbArc
 50
32.487255946599994
 51
65.725950744299823
  0
LINE
  5
43C
100
AcDbEntity
  8
0
370
              25
  6
Continuous
 62
               7
100
AcDbLine
 10
147.31414646586001
 20
70.988694793980002
 30
0.0
 11
147.31414636171999
 21
72.794596231699998
 31
0.0
  0
ARC
  5
43D
100
AcDbEntity
  8
0
370
              25
  6
Continuous
 62
               7
100
AcDbCircle
 10
144.02514412084
 20
73.08299158074
 30
0.0
 40
3.8991813815637042
100
AcDbArc
 50
294.27403937240001
 51
327.51274992579994
  0
ARC
  5
43E
100
AcDbEntity
  8
0
370
              25
  6
Continuous
 62
               7
100
AcDbCircle
 10
140.81414611561999
 20
81.823519895939995
 30
0.0
 40
13.305193020373588
100
AcDbArc
 50
262.71986549569999
 51
277.28013625900002
  0
LINE
  5
43F
100
AcDbEntity
  8
0
370
              25
  6
Continuous
 62
               7
100
AcDbLine
 10
136.00018983804
 20
69.528538209600001
 30
0.0
 11
139.12810283543999
 21
68.625587505979993
 31
0.0
  0
ARC
  5
440
100
AcDbEntity
  8
0
370
              25
  6
Continuous
 62
               7
100
AcDbCircle
 10
137.60314984013999
 20
73.082992652619993
 30
0.0
 40
3.8991828822285992
100
AcDbArc
 50
212.48725594660004
 51
245.72595074430018
  0
LINE
  5
441
100
AcDbEntity
  8
0
370
              25
  6
Continuous
 62
               7
100
AcDbLine
 10
134.31414633941998
 20
72.794596160579985
 30
0.0
 11
134.31414644355999
 21
70.988694722859989
 31
0.0
  0
ARC
  5
442
100
AcDbEntity
  8
0
370
              25
  6
Continuous
 62
               7
100
AcDbCircle
 10
137.60314868444001
 20
70.700299376360007
 30
0.0
 40
3.8991813815636278
100
AcDbArc
 50
114.2740393724001
 51
147.51274992580005
  0
LINE
  5
443
100
AcDbEntity
  8
0
370
              25
  6
Continuous
 62
               7
100
AcDbLine
 10
139.12810300816
 20
75.157703400320003
 30
0.0
 11
136.00018991169998
 21
74.254752727179991
 31
0.0
  0
ARC
  5
444
100
AcDbEntity
  8
0
370
              25
  6
Continuous
 62
               7
100
AcDbCircle
 10
140.81414669219998
 20
61.959771061159998
 30
0.0
 40
13.305193020374663
100
AcDbArc
 50
82.719865495699963
 51
97.280136259000002
  0
SPLINE
  5
445
100
AcDbEntity
  8
0
370
              25
  6
Continuous
 62
               7
100
AcDbSpline
210
0.0
220
0.0
230
1.0
 70
               8
 71
               2
 72
              12
 73
               9
 74
               0
 42
0.000001
 43
0.000001
 40
0.0
 40
0.0
 40
0.0
 40
1.0
 40
1.0
 40
2.0
 40
3.0
 40
4.0
 40
4.0
 40
5.0
 40
5.0
 40
5.0
 10
140.81414625357843
 20
67.759193813777856
 30
0.0
 10
140.81136857101779
 20
67.760748482880885
 30
0.0
 10
140.80859088845719
 20
67.762303151983915
 30
0.0
 10
140.54764472006374
 20
67.909129530865229
 30
0.0
 10
139.88239591275754
 20
68.2742223465183
 30
0.0
 10
139.3002462259781
 20
68.54718691235685
 30
0.0
 10
139.1307917929046
 20
68.624359047866719
 30
0.0
 10
139.12944731382913
 20
68.624973276439178
 30
0.0
 10
139.12810283475363
 20
68.625587505011637
 30
0.0
  0
LINE
  5
446
100
AcDbEntity
  8
0
370
              25
  6
Continuous
 62
               7
100
AcDbLine
 10
134.31414641815999
 20
65.252117326339999
 30
0.0
 11
140.81414625277998
 21
63.375728998859998
 31
0.0
  0
LINE
  5
447
100
AcDbEntity
  8
0
370
              25
  6
Continuous
 62
               7
100
AcDbLine
 10
134.31414641815999
 20
69.635582140799997
 30
0.0
 11
134.31414641815999
 21
65.252117326339999
 31
0.0
  0
SPLINE
  5
448
100
AcDbEntity
  8
0
370
              25
  6
Continuous
 62
               7
100
AcDbSpline
210
0.0
220
0.0
230
1.0
 70
               8
 71
               2
 72
              11
 73
               8
 74
               0
 42
0.000001
 43
0.000001
 40
0.0
 40
0.0
 40
0.0
 40
1.0
 40
1.0
 40
2.0
 40
3.0
 40
3.0
 40
4.0
 40
4.0
 40
4.0
 10
136.00018983745957
 20
69.528538210506397
 30
0.0
 10
135.99986583692379
 20
69.528580539207837
 30
0.0
 10
135.999541836388
 20
69.528622867909277
 30
0.0
 10
135.58259922958445
 20
69.583908615031419
 30
0.0
 10
134.74950870101924
 20
69.626242514385538
 30
0.0
 10
134.32140715072296
 20
69.635401129953195
 30
0.0
 10
134.31777678467893
 20
69.635491635474807
 30
0.0
 10
134.31414641863486
 20
69.635582140996434
 30
0.0
  0
LINE
  5
449
100
AcDbEntity
  8
0
370
              25
  6
Continuous
 62
               7
100
AcDbLine
 10
147.31414646586001
 20
70.988694793980002
 30
0.0
 11
147.31414623725999
 21
69.635582270339995
 31
0.0
  0
LINE
  5
44A
100
AcDbEntity
  8
0
370
              25
  6
Continuous
 62
               7
100
AcDbLine
 10
134.31414641863486
 20
69.635582140996434
 30
0.0
 11
134.31414644465355
 21
70.988694723832694
 31
0.0
  0
SPLINE
  5
44B
100
AcDbEntity
  8
0
370
              25
  6
Continuous
 62
               7
100
AcDbSpline
210
0.0
220
0.0
230
1.0
 70
               8
 71
               2
 72
              11
 73
               8
 74
               0
 42
0.000001
 43
0.000001
 40
0.0
 40
0.0
 40
0.0
 40
1.0
 40
1.0
 40
2.0
 40
3.0
 40
3.0
 40
4.0
 40
4.0
 40
4.0
 10
145.62810296886414
 20
74.254752745753564
 30
0.0
 10
145.6284396753033
 20
74.254602336850795
 30
0.0
 10
145.62877638174248
 20
74.254451927948026
 30
0.0
 10
145.99777951988059
 20
74.090347197342481
 30
0.0
 10
146.83166977477771
 20
73.657217875450414
 30
0.0
 10
147.30660092100905
 20
73.392527322222946
 30
0.0
 10
147.31037365434895
 20
73.39044318837135
 30
0.0
 10
147.31414638768885
 20
73.388359054519753
 30
0.0
  0
LINE
  5
44C
100
AcDbEntity
  8
0
370
              25
  6
Continuous
 62
               7
100
AcDbLine
 10
147.31414638768885
 20
73.388359054519753
 30
0.0
 11
147.31414636167014
 21
72.794596232427239
 31
0.0
  0
SPLINE
  5
44D
100
AcDbEntity
  8
0
370
              25
  6
Continuous
 62
               7
100
AcDbSpline
210
0.0
220
0.0
230
1.0
 70
               8
 71
               2
 72
              12
 73
               9
 74
               0
 42
0.000001
 43
0.000001
 40
0.0
 40
0.0
 40
0.0
 40
1.0
 40
1.0
 40
2.0
 40
3.0
 40
4.0
 40
4.0
 40
5.0
 40
5.0
 40
5.0
 10
134.31414656821832
 20
73.3883589249767
 30
0.0
 10
134.31564742376358
 20
73.389211855738665
 30
0.0
 10
134.31714827930884
 20
73.390064786500631
 30
0.0
 10
134.55401959999486
 20
73.525879602722611
 30
0.0
 10
135.06106064204928
 20
73.802845163410126
 30
0.0
 10
135.66210120883468
 20
74.097074521600604
 30
0.0
 10
135.99491067879748
 20
74.252275441205143
 30
0.0
 10
135.99755029552031
 20
74.253514083629995
 30
0.0
 10
136.00018991224314
 20
74.254752726054846
 30
0.0
  0
LINE
  5
44E
100
AcDbEntity
  8
0
370
              25
  6
Continuous
 62
               7
100
AcDbLine
 10
134.31414633941998
 20
72.794596160579985
 30
0.0
 11
134.31414656801999
 21
73.388358925299997
 31
0.0
  0
SPLINE
  5
44F
100
AcDbEntity
  8
0
370
              25
  6
Continuous
 62
               7
100
AcDbSpline
210
0.0
220
0.0
230
1.0
 70
               8
 71
               2
 72
              12
 73
               9
 74
               0
 42
0.000001
 43
0.000001
 40
0.0
 40
0.0
 40
0.0
 40
1.0
 40
1.0
 40
2.0
 40
3.0
 40
4.0
 40
4.0
 40
5.0
 40
5.0
 40
5.0
 10
140.81414655274531
 20
75.26474738173836
 30
0.0
 10
140.8168194170961
 20
75.264700205130339
 30
0.0
 10
140.81949228144688
 20
75.264653028522332
 30
0.0
 10
141.15594554420372
 20
75.260341928303319
 30
0.0
 10
141.82919574786035
 20
75.233605128212247
 30
0.0
 10
142.33454560926205
 20
75.177882738526364
 30
0.0
 10
142.49760248353797
 20
75.158015237888591
 30
0.0
 10
142.49889622755401
 20
75.157859344568436
 30
0.0
 10
142.50018997157005
 20
75.157703451248295
 30
0.0
  0
LINE
  5
450
100
AcDbEntity
  8
0
370
              25
  6
Continuous
 62
               7
100
AcDbLine
 10
139.12810300816
 20
75.157703400320003
 30
0.0
 11
140.81414655249998
 21
75.264747382319996
 31
0.0
  0
LINE
  5
451
100
AcDbEntity
  8
0
370
              25
  6
Continuous
 62
               7
100
AcDbLine
 10
134.14575082912
 20
69.053505773840001
 30
0.0
 11
134.31414654261999
 21
69.192482478359992
 31
0.0
  0
POLYLINE
  5
452
100
AcDbEntity
  8
0
370
              25
  6
Continuous
 62
               7
100
AcDb2dPolyline
 66
               1
 10
0.0
 20
0.0
 30
0.0
 75
               5
  0
VERTEX
  5
453
100
AcDbEntity
  8
0
370
              25
  6
Continuous
 62
               7
100
AcDbVertex
100
AcDb2dVertex
 10
147.31414626011997
 20
69.192482518999995
 30
0.0
  0
VERTEX
  5
454
100
AcDbEntity
  8
0
370
              25
  6
Continuous
 62
               7
100
AcDbVertex
100
AcDb2dVertex
 10
147.74296623306
 20
68.807899536579995
 30
0.0
  0
VERTEX
  5
455
100
AcDbEntity
  8
0
370
              25
  6
Continuous
 62
               7
100
AcDbVertex
100
AcDb2dVertex
 10
148.30301471417999
 20
68.023890487380001
 30
0.0
  0
VERTEX
  5
456
100
AcDbEntity
  8
0
370
              25
  6
Continuous
 62
               7
100
AcDbVertex
100
AcDb2dVertex
 10
148.51289137088
 20
67.198014321000002
 30
0.0
  0
VERTEX
  5
457
100
AcDbEntity
  8
0
370
              25
  6
Continuous
 62
               7
100
AcDbVertex
100
AcDb2dVertex
 10
148.36278368277999
 20
66.368887828379997
 30
0.0
  0
VERTEX
  5
458
100
AcDbEntity
  8
0
370
              25
  6
Continuous
 62
               7
100
AcDbVertex
100
AcDb2dVertex
 10
147.85971000516
 20
65.575280368099996
 30
0.0
  0
VERTEX
  5
459
100
AcDbEntity
  8
0
370
              25
  6
Continuous
 62
               7
100
AcDbVertex
100
AcDb2dVertex
 10
147.0271935371
 20
64.854299958399992
 30
0.0
  0
VERTEX
  5
45A
100
AcDbEntity
  8
0
370
              25
  6
Continuous
 62
               7
100
AcDbVertex
100
AcDb2dVertex
 10
145.90416193505999
 20
64.239658937239994
 30
0.0
  0
VERTEX
  5
45B
100
AcDbEntity
  8
0
370
              25
  6
Continuous
 62
               7
100
AcDbVertex
100
AcDb2dVertex
 10
144.54312656721999
 20
63.760097155699988
 30
0.0
  0
VERTEX
  5
45C
100
AcDbEntity
  8
0
370
              25
  6
Continuous
 62
               7
100
AcDbVertex
100
AcDb2dVertex
 10
143.00772875918
 20
63.438038330680001
 30
0.0
  0
VERTEX
  5
45D
100
AcDbEntity
  8
0
370
              25
  6
Continuous
 62
               7
100
AcDbVertex
100
AcDb2dVertex
 10
141.36976101149997
 20
63.288541911359999
 30
0.0
  0
VERTEX
  5
45E
100
AcDbEntity
  8
0
370
              25
  6
Continuous
 62
               7
100
AcDbVertex
100
AcDb2dVertex
 10
139.70581368154001
 20
63.318597647539995
 30
0.0
  0
VERTEX
  5
45F
100
AcDbEntity
  8
0
370
              25
  6
Continuous
 62
               7
100
AcDbVertex
100
AcDb2dVertex
 10
138.09369073357999
 20
63.526800703319999
 30
0.0
  0
VERTEX
  5
460
100
AcDbEntity
  8
0
370
              25
  6
Continuous
 62
               7
100
AcDbVertex
100
AcDb2dVertex
 10
136.60877314715998
 20
63.90341529933999
 30
0.0
  0
VERTEX
  5
461
100
AcDbEntity
  8
0
370
              25
  6
Continuous
 62
               7
100
AcDbVertex
100
AcDb2dVertex
 10
135.32049425814
 20
64.430831653699997
 30
0.0
  0
VERTEX
  5
462
100
AcDbEntity
  8
0
370
              25
  6
Continuous
 62
               7
100
AcDbVertex
100
AcDb2dVertex
 10
134.28909221121998
 20
65.084388134239987
 30
0.0
  0
VERTEX
  5
463
100
AcDbEntity
  8
0
370
              25
  6
Continuous
 62
               7
100
AcDbVertex
100
AcDb2dVertex
 10
133.56279478649998
 20
65.833525350719995
 30
0.0
  0
VERTEX
  5
464
100
AcDbEntity
  8
0
370
              25
  6
Continuous
 62
               7
100
AcDbVertex
100
AcDb2dVertex
 10
133.17556211671999
 20
66.643214498419994
 30
0.0
  0
VERTEX
  5
465
100
AcDbEntity
  8
0
370
              25
  6
Continuous
 62
               7
100
AcDbVertex
100
AcDb2dVertex
 10
133.14550137166
 20
67.475595117120008
 30
0.0
  0
VERTEX
  5
466
100
AcDbEntity
  8
0
370
              25
  6
Continuous
 62
               7
100
AcDbVertex
100
AcDb2dVertex
 10
133.47401811366001
 20
68.291746316919998
 30
0.0
  0
VERTEX
  5
467
100
AcDbEntity
  8
0
370
              25
  6
Continuous
 62
               7
100
AcDbVertex
100
AcDb2dVertex
 10
134.14575082912
 20
69.053505773840001
 30
0.0
  0
VERTEX
  5
468
100
AcDbEntity
  8
0
370
              25
  6
Continuous
 62
               7
100
AcDbVertex
100
AcDb2dVertex
 10
134.14575082912
 20
69.053505773840001
 30
0.0
  0
SEQEND
  5
469
100
AcDbEntity
  8
0
370
              25
  6
Continuous
 62
               7
  0
POLYLINE
  5
46A
100
AcDbEntity
  8
0
370
              25
  6
Continuous
 62
               7
100
AcDb2dPolyline
 66
               1
 10
0.0
 20
0.0
 30
0.0
 75
               5
  0
VERTEX
  5
46B
100
AcDbEntity
  8
0
370
              25
  6
Continuous
 62
               7
100
AcDbVertex
100
AcDb2dVertex
 10
148.51414658299998
 20
65.396454627200001
 30
0.0
  0
VERTEX
  5
46C
100
AcDbEntity
  8
0
370
              25
  6
Continuous
 62
               7
100
AcDbVertex
100
AcDb2dVertex
 10
148.36278368277999
 20
64.636836738260001
 30
0.0
  0
VERTEX
  5
46D
100
AcDbEntity
  8
0
370
              25
  6
Continuous
 62
               7
100
AcDbVertex
100
AcDb2dVertex
 10
147.85971000516
 20
63.843229277980001
 30
0.0
  0
VERTEX
  5
46E
100
AcDbEntity
  8
0
370
              25
  6
Continuous
 62
               7
100
AcDbVertex
100
AcDb2dVertex
 10
147.0271935371
 20
63.122248868279996
 30
0.0
  0
VERTEX
  5
46F
100
AcDbEntity
  8
0
370
              25
  6
Continuous
 62
               7
100
AcDbVertex
100
AcDb2dVertex
 10
145.90416193505999
 20
62.507607844579994
 30
0.0
  0
VERTEX
  5
470
100
AcDbEntity
  8
0
370
              25
  6
Continuous
 62
               7
100
AcDbVertex
100
AcDb2dVertex
 10
144.54312656721999
 20
62.028046063039994
 30
0.0
  0
VERTEX
  5
471
100
AcDbEntity
  8
0
370
              25
  6
Continuous
 62
               7
100
AcDbVertex
100
AcDb2dVertex
 10
143.00772875918
 20
61.705987238020001
 30
0.0
  0
VERTEX
  5
472
100
AcDbEntity
  8
0
370
              25
  6
Continuous
 62
               7
100
AcDbVertex
100
AcDb2dVertex
 10
141.36976101149997
 20
61.556490818699999
 30
0.0
  0
VERTEX
  5
473
100
AcDbEntity
  8
0
370
              25
  6
Continuous
 62
               7
100
AcDbVertex
100
AcDb2dVertex
 10
139.70581368154001
 20
61.586546554879995
 30
0.0
  0
VERTEX
  5
474
100
AcDbEntity
  8
0
370
              25
  6
Continuous
 62
               7
100
AcDbVertex
100
AcDb2dVertex
 10
138.09369073357999
 20
61.794749610659998
 30
0.0
  0
VERTEX
  5
475
100
AcDbEntity
  8
0
370
              25
  6
Continuous
 62
               7
100
AcDbVertex
100
AcDb2dVertex
 10
136.60877314715998
 20
62.171364206679989
 30
0.0
  0
VERTEX
  5
476
100
AcDbEntity
  8
0
370
              25
  6
Continuous
 62
               7
100
AcDbVertex
100
AcDb2dVertex
 10
135.32049425814
 20
62.698780563579994
 30
0.0
  0
VERTEX
  5
477
100
AcDbEntity
  8
0
370
              25
  6
Continuous
 62
               7
100
AcDbVertex
100
AcDb2dVertex
 10
134.28909221121998
 20
63.352337041579993
 30
0.0
  0
VERTEX
  5
478
100
AcDbEntity
  8
0
370
              25
  6
Continuous
 62
               7
100
AcDbVertex
100
AcDb2dVertex
 10
133.56279478649998
 20
64.101474258059994
 30
0.0
  0
VERTEX
  5
479
100
AcDbEntity
  8
0
370
              25
  6
Continuous
 62
               7
100
AcDbVertex
100
AcDb2dVertex
 10
133.17556211671999
 20
64.911163408299998
 30
0.0
  0
VERTEX
  5
47A
100
AcDbEntity
  8
0
370
              25
  6
Continuous
 62
               7
100
AcDbVertex
100
AcDb2dVertex
 10
133.11414622481999
 20
65.396454756739999
 30
0.0
  0
SEQEND
  5
47B
100
AcDbEntity
  8
0
370
              25
  6
Continuous
 62
               7
  0
LINE
  5
47C
100
AcDbEntity
  8
0
370
              25
  6
Continuous
 62
               7
100
AcDbLine
 10
172.82118882987999
 20
52.201967795500003
 30
0.0
 11
172.82118882987999
 21
102.7177646682
 31
0.0
  0
LINE
  5
47D
100
AcDbEntity
  8
0
370
              25
  6
Continuous
 62
               7
100
AcDbLine
 10
179.82118904625997
 20
102.82554300483999
 30
0.0
 11
179.82118904625997
 21
63.409453427220001
 31
0.0
  0
LINE
  5
47E
100
AcDbEntity
  8
0
370
              25
  6
Continuous
 62
               7
100
AcDbLine
 10
171.08913773975999
 20
52.70196787754
 30
0.0
 11
171.08913773975999
 21
102.15624946662
 31
0.0
  0
ARC
  5
47F
100
AcDbEntity
  8
0
370
              25
  6
Continuous
 62
               7
100
AcDbCircle
 10
170.53700542517998
 20
52.112821603459992
 30
0.0
 40
2.2859223253795826
100
AcDbArc
 50
248.61536506250016
 51
2.2349823554000352
  0
ARC
  5
480
100
AcDbEntity
  8
0
370
              25
  6
Continuous
 62
               7
100
AcDbCircle
 10
170.07394402465999
 20
52.662348759419999
 30
0.0
 40
1.0159665121982309
100
AcDbArc
 50
248.61543221449929
 51
2.2349004398000716
  0
LINE
  5
481
100
AcDbEntity
  8
0
370
              25
  6
Continuous
 62
               7
100
AcDbLine
 10
110.53915506552001
 20
78.264146293339991
 30
0.0
 11
103.53915485168
 21
72.20196827801999
 31
0.0
  0
LINE
  5
482
100
AcDbEntity
  8
0
370
              25
  6
Continuous
 62
               7
100
AcDbLine
 10
103.53915485168
 20
104.72489239891999
 30
0.0
 11
103.53915485168
 21
72.20196827801999
 31
0.0
  0
LINE
  5
483
100
AcDbEntity
  8
0
370
              25
  6
Continuous
 62
               7
100
AcDbLine
 10
110.53915506552001
 20
78.264146293339991
 30
0.0
 11
110.53915506552001
 21
102.15625076963998
 31
0.0
  0
LINE
  5
484
100
AcDbEntity
  8
0
370
              25
  6
Continuous
 62
               7
100
AcDbLine
 10
104.92479636792
 20
70.416327315399997
 30
0.0
 11
134.98230160457999
 21
61.739472947019998
 31
0.0
  0
LINE
  5
485
100
AcDbEntity
  8
0
370
              25
  6
Continuous
 62
               7
100
AcDbLine
 10
139.64599098431998
 20
60.393181786419994
 30
0.0
 11
169.70349622097999
 21
51.716327418039995
 31
0.0
  0
LINE
  5
486
100
AcDbEntity
  8
0
370
              25
  6
Continuous
 62
               7
100
AcDbLine
 10
111.92479658429998
 20
76.478505328179992
 30
0.0
 11
104.92479636792
 21
70.416327315399997
 31
0.0
  0
LINE
  5
487
100
AcDbEntity
  8
0
370
              25
  6
Continuous
 62
               7
100
AcDbLine
 10
171.08913782357999
 20
59.399231158119996
 30
0.0
 11
148.51414643059999
 21
65.916069838919995
 31
0.0
  0
LINE
  5
488
100
AcDbEntity
  8
0
370
              25
  6
Continuous
 62
               7
100
AcDbLine
 10
134.31414620734
 20
70.015256814520001
 30
0.0
 11
111.92479658429998
 21
76.478505328179992
 31
0.0
  0
LINE
  5
489
100
AcDbEntity
  8
0
370
              25
  6
Continuous
 62
               7
100
AcDbLine
 10
104.92479636792
 20
68.684276626599996
 30
0.0
 11
169.70349622097999
 21
49.984276729240001
 31
0.0
  0
LINE
  5
48A
100
AcDbEntity
  8
0
370
              25
  6
Continuous
 62
               7
100
AcDbLine
 10
101.80710375902001
 20
105.49884169176001
 30
0.0
 11
101.80710375902001
 21
72.701968360059993
 31
0.0
  0
ARC
  5
48B
100
AcDbEntity
  8
0
370
              25
  6
Continuous
 62
               7
100
AcDbCircle
 10
106.23699226778
 20
72.921025392099992
 30
0.0
 40
4.4353013629778353
100
AcDbArc
 50
182.83095795399998
 51
252.79132376460004
  0
ARC
  5
48C
100
AcDbEntity
  8
0
370
              25
  6
Continuous
 62
               7
100
AcDbCircle
 10
105.5079969846
 20
72.299329043420002
 30
0.0
 40
1.9712479476017939
100
AcDbArc
 50
182.83101445279996
 51
252.79127562209996
  0
ARC
  5
48D
100
AcDbEntity
  8
0
370
              25
  6
Continuous
 62
               7
100
AcDbCircle
 10
112.50799720097999
 20
78.361507058739988
 30
0.0
 40
1.9712479476017513
100
AcDbArc
 50
182.83101445280008
 51
252.79127562209999
  0
ARC
  5
48E
100
AcDbEntity
  8
0
370
              25
  6
Continuous
 62
               7
100
AcDbCircle
 10
140.12789306089999
 20
69.08138139754
 30
0.0
 40
10.431387534445907
100
AcDbArc
 50
240.44362597480009
 51
267.35214652130009
  0
POLYLINE
  5
48F
100
AcDbEntity
  8
0
370
              25
  6
Continuous
 62
               7
100
AcDb2dPolyline
 66
               1
 10
0.0
 20
0.0
 30
0.0
 75
               5
  0
VERTEX
  5
490
100
AcDbEntity
  8
0
370
              25
  6
Continuous
 62
               7
100
AcDbVertex
100
AcDb2dVertex
 10
133.4126540149
 20
60.460540689039995
 30
0.0
  0
VERTEX
  5
491
100
AcDbEntity
  8
0
370
              25
  6
Continuous
 62
               7
100
AcDbVertex
100
AcDb2dVertex
 10
133.75114144307997
 20
59.804983003459995
 30
0.0
  0
VERTEX
  5
492
100
AcDbEntity
  8
0
370
              25
  6
Continuous
 62
               7
100
AcDbVertex
100
AcDb2dVertex
 10
134.45857405665998
 20
59.075303764319997
 30
0.0
  0
VERTEX
  5
493
100
AcDbEntity
  8
0
370
              25
  6
Continuous
 62
               7
100
AcDbVertex
100
AcDb2dVertex
 10
135.46318637306001
 20
58.438722789579991
 30
0.0
  0
VERTEX
  5
494
100
AcDbEntity
  8
0
370
              25
  6
Continuous
 62
               7
100
AcDbVertex
100
AcDb2dVertex
 10
136.71800363989999
 20
57.925005706779999
 30
0.0
  0
VERTEX
  5
495
100
AcDbEntity
  8
0
370
              25
  6
Continuous
 62
               7
100
AcDbVertex
100
AcDb2dVertex
 10
138.16435177843999
 20
57.558173105419996
 30
0.0
  0
VERTEX
  5
496
100
AcDbEntity
  8
0
370
              25
  6
Continuous
 62
               7
100
AcDbVertex
100
AcDb2dVertex
 10
139.73460172149998
 20
57.355378176999999
 30
0.0
  0
VERTEX
  5
497
100
AcDbEntity
  8
0
370
              25
  6
Continuous
 62
               7
100
AcDbVertex
100
AcDb2dVertex
 10
141.35532952906001
 20
57.326103074259997
 30
0.0
  0
VERTEX
  5
498
100
AcDbEntity
  8
0
370
              25
  6
Continuous
 62
               7
100
AcDbVertex
100
AcDb2dVertex
 10
142.95075254852
 20
57.47171651176
 30
0.0
  0
VERTEX
  5
499
100
AcDbEntity
  8
0
370
              25
  6
Continuous
 62
               7
100
AcDbVertex
100
AcDb2dVertex
 10
143.46563894317998
 20
57.558493912499998
 30
0.0
  0
SEQEND
  5
49A
100
AcDbEntity
  8
0
370
              25
  6
Continuous
 62
               7
  0
POLYLINE
  5
49B
100
AcDbEntity
  8
0
370
              25
  6
Continuous
 62
               7
100
AcDb2dPolyline
 66
               1
 10
0.0
 20
0.0
 30
0.0
 75
               5
  0
VERTEX
  5
49C
100
AcDbEntity
  8
0
370
              25
  6
Continuous
 62
               7
100
AcDbVertex
100
AcDb2dVertex
 10
148.31414618036001
 20
65.396454708479993
 30
0.0
  0
VERTEX
  5
49D
100
AcDbEntity
  8
0
370
              25
  6
Continuous
 62
               7
100
AcDbVertex
100
AcDb2dVertex
 10
148.16671515188
 20
64.656567072179996
 30
0.0
  0
VERTEX
  5
49E
100
AcDbEntity
  8
0
370
              25
  6
Continuous
 62
               7
100
AcDbVertex
100
AcDb2dVertex
 10
147.67670833407999
 20
63.883572771079997
 30
0.0
  0
VERTEX
  5
49F
100
AcDbEntity
  8
0
370
              25
  6
Continuous
 62
               7
100
AcDbVertex
100
AcDb2dVertex
 10
146.86581572167998
 20
63.181319169239998
 30
0.0
  0
VERTEX
  5
4A0
100
AcDbEntity
  8
0
370
              25
  6
Continuous
 62
               7
100
AcDbVertex
100
AcDb2dVertex
 10
145.77195372602
 20
62.58264284309999
 30
0.0
  0
VERTEX
  5
4A1
100
AcDbEntity
  8
0
370
              25
  6
Continuous
 62
               7
100
AcDbVertex
100
AcDb2dVertex
 10
144.44627014930001
 20
62.115537216479993
 30
0.0
  0
VERTEX
  5
4A2
100
AcDbEntity
  8
0
370
              25
  6
Continuous
 62
               7
100
AcDbVertex
100
AcDb2dVertex
 10
142.95075254852
 20
61.80184363507999
 30
0.0
  0
VERTEX
  5
4A3
100
AcDbEntity
  8
0
370
              25
  6
Continuous
 62
               7
100
AcDbVertex
100
AcDb2dVertex
 10
141.35532952906001
 20
61.656230197579994
 30
0.0
  0
VERTEX
  5
4A4
100
AcDbEntity
  8
0
370
              25
  6
Continuous
 62
               7
100
AcDbVertex
100
AcDb2dVertex
 10
139.73460172149998
 20
61.685505300320003
 30
0.0
  0
VERTEX
  5
4A5
100
AcDbEntity
  8
0
370
              25
  6
Continuous
 62
               7
100
AcDbVertex
100
AcDb2dVertex
 10
138.16435177843999
 20
61.888300231279999
 30
0.0
  0
VERTEX
  5
4A6
100
AcDbEntity
  8
0
370
              25
  6
Continuous
 62
               7
100
AcDbVertex
100
AcDb2dVertex
 10
136.71800363989999
 20
62.255132830100003
 30
0.0
  0
VERTEX
  5
4A7
100
AcDbEntity
  8
0
370
              25
  6
Continuous
 62
               7
100
AcDbVertex
100
AcDb2dVertex
 10
135.46318637306001
 20
62.768849912899988
 30
0.0
  0
VERTEX
  5
4A8
100
AcDbEntity
  8
0
370
              25
  6
Continuous
 62
               7
100
AcDbVertex
100
AcDb2dVertex
 10
134.45857405665998
 20
63.405430887640001
 30
0.0
  0
VERTEX
  5
4A9
100
AcDbEntity
  8
0
370
              25
  6
Continuous
 62
               7
100
AcDbVertex
100
AcDb2dVertex
 10
133.75114144307997
 20
64.135110126779992
 30
0.0
  0
VERTEX
  5
4AA
100
AcDbEntity
  8
0
370
              25
  6
Continuous
 62
               7
100
AcDbVertex
100
AcDb2dVertex
 10
133.37396707677999
 20
64.923768237040008
 30
0.0
  0
VERTEX
  5
4AB
100
AcDbEntity
  8
0
370
              25
  6
Continuous
 62
               7
100
AcDbVertex
100
AcDb2dVertex
 10
133.31414662745999
 20
65.396454675459992
 30
0.0
  0
SEQEND
  5
4AC
100
AcDbEntity
  8
0
370
              25
  6
Continuous
 62
               7
  0
POLYLINE
  5
4AD
100
AcDbEntity
  8
0
370
              25
  6
Continuous
 62
               7
100
AcDb2dPolyline
 66
               1
 10
0.0
 20
0.0
 30
0.0
 75
               5
  0
VERTEX
  5
4AE
100
AcDbEntity
  8
0
370
              25
  6
Continuous
 62
               7
100
AcDbVertex
100
AcDb2dVertex
 10
148.31414618036001
 20
64.097416389619994
 30
0.0
  0
VERTEX
  5
4AF
100
AcDbEntity
  8
0
370
              25
  6
Continuous
 62
               7
100
AcDbVertex
100
AcDb2dVertex
 10
148.16671515188
 20
63.357528753319997
 30
0.0
  0
VERTEX
  5
4B0
100
AcDbEntity
  8
0
370
              25
  6
Continuous
 62
               7
100
AcDbVertex
100
AcDb2dVertex
 10
147.67670833407999
 20
62.584534452219998
 30
0.0
  0
VERTEX
  5
4B1
100
AcDbEntity
  8
0
370
              25
  6
Continuous
 62
               7
100
AcDbVertex
100
AcDb2dVertex
 10
146.86581572167998
 20
61.882280850379992
 30
0.0
  0
VERTEX
  5
4B2
100
AcDbEntity
  8
0
370
              25
  6
Continuous
 62
               7
100
AcDbVertex
100
AcDb2dVertex
 10
145.77195372602
 20
61.283604524239998
 30
0.0
  0
VERTEX
  5
4B3
100
AcDbEntity
  8
0
370
              25
  6
Continuous
 62
               7
100
AcDbVertex
100
AcDb2dVertex
 10
144.44627014930001
 20
60.816498897619994
 30
0.0
  0
VERTEX
  5
4B4
100
AcDbEntity
  8
0
370
              25
  6
Continuous
 62
               7
100
AcDbVertex
100
AcDb2dVertex
 10
142.95075254852
 20
60.502805316219998
 30
0.0
  0
VERTEX
  5
4B5
100
AcDbEntity
  8
0
370
              25
  6
Continuous
 62
               7
100
AcDbVertex
100
AcDb2dVertex
 10
141.35532952906001
 20
60.357191878719995
 30
0.0
  0
VERTEX
  5
4B6
100
AcDbEntity
  8
0
370
              25
  6
Continuous
 62
               7
100
AcDbVertex
100
AcDb2dVertex
 10
139.73460172149998
 20
60.386466981459996
 30
0.0
  0
VERTEX
  5
4B7
100
AcDbEntity
  8
0
370
              25
  6
Continuous
 62
               7
100
AcDbVertex
100
AcDb2dVertex
 10
138.16435177843999
 20
60.58926191242
 30
0.0
  0
VERTEX
  5
4B8
100
AcDbEntity
  8
0
370
              25
  6
Continuous
 62
               7
100
AcDbVertex
100
AcDb2dVertex
 10
136.71800363989999
 20
60.956094511239996
 30
0.0
  0
VERTEX
  5
4B9
100
AcDbEntity
  8
0
370
              25
  6
Continuous
 62
               7
100
AcDbVertex
100
AcDb2dVertex
 10
135.46318637306001
 20
61.469811596580001
 30
0.0
  0
VERTEX
  5
4BA
100
AcDbEntity
  8
0
370
              25
  6
Continuous
 62
               7
100
AcDbVertex
100
AcDb2dVertex
 10
134.45857405665998
 20
62.106392568779995
 30
0.0
  0
VERTEX
  5
4BB
100
AcDbEntity
  8
0
370
              25
  6
Continuous
 62
               7
100
AcDbVertex
100
AcDb2dVertex
 10
133.75114144307997
 20
62.83607180792
 30
0.0
  0
VERTEX
  5
4BC
100
AcDbEntity
  8
0
370
              25
  6
Continuous
 62
               7
100
AcDbVertex
100
AcDb2dVertex
 10
133.37396707677999
 20
63.624729918180002
 30
0.0
  0
VERTEX
  5
4BD
100
AcDbEntity
  8
0
370
              25
  6
Continuous
 62
               7
100
AcDbVertex
100
AcDb2dVertex
 10
133.31414662745999
 20
64.097416356599993
 30
0.0
  0
SEQEND
  5
4BE
100
AcDbEntity
  8
0
370
              25
  6
Continuous
 62
               7
  0
POLYLINE
  5
4BF
100
AcDbEntity
  8
0
370
              25
  6
Continuous
 62
               7
100
AcDb2dPolyline
 66
               1
 10
0.0
 20
0.0
 30
0.0
 75
               5
  0
VERTEX
  5
4C0
100
AcDbEntity
  8
0
370
              25
  6
Continuous
 62
               7
100
AcDbVertex
100
AcDb2dVertex
 10
162.34626554811999
 20
90.522655804719989
 30
0.0
  0
VERTEX
  5
4C1
100
AcDbEntity
  8
0
370
              25
  6
Continuous
 62
               7
100
AcDbVertex
100
AcDb2dVertex
 10
161.16947396469999
 20
90.757226694479996
 30
0.0
  0
VERTEX
  5
4C2
100
AcDbEntity
  8
0
370
              25
  6
Continuous
 62
               7
100
AcDbVertex
100
AcDb2dVertex
 10
160.18324565521999
 20
91.154808733959996
 30
0.0
  0
VERTEX
  5
4C3
100
AcDbEntity
  8
0
370
              25
  6
Continuous
 62
               7
100
AcDbVertex
100
AcDb2dVertex
 10
159.47521216145998
 20
91.68007570476
 30
0.0
  0
VERTEX
  5
4C4
100
AcDbEntity
  8
0
370
              25
  6
Continuous
 62
               7
100
AcDbVertex
100
AcDb2dVertex
 10
159.10828555216
 20
92.286355487880002
 30
0.0
  0
VERTEX
  5
4C5
100
AcDbEntity
  8
0
370
              25
  6
Continuous
 62
               7
100
AcDbVertex
100
AcDb2dVertex
 10
159.11506679081998
 20
92.919775714560004
 30
0.0
  0
VERTEX
  5
4C6
100
AcDbEntity
  8
0
370
              25
  6
Continuous
 62
               7
100
AcDbVertex
100
AcDb2dVertex
 10
159.49495486772
 20
93.524055750599999
 30
0.0
  0
VERTEX
  5
4C7
100
AcDbEntity
  8
0
370
              25
  6
Continuous
 62
               7
100
AcDbVertex
100
AcDb2dVertex
 10
159.66036936035999
 20
93.677221433599996
 30
0.0
  0
SEQEND
  5
4C8
100
AcDbEntity
  8
0
370
              25
  6
Continuous
 62
               7
  0
POLYLINE
  5
4C9
100
AcDbEntity
  8
0
370
              25
  6
Continuous
 62
               7
100
AcDb2dPolyline
 66
               1
 10
0.0
 20
0.0
 30
0.0
 75
               5
  0
VERTEX
  5
4CA
100
AcDbEntity
  8
0
370
              25
  6
Continuous
 62
               7
100
AcDbVertex
100
AcDb2dVertex
 10
166.96792215949998
 20
93.677221146579996
 30
0.0
  0
VERTEX
  5
4CB
100
AcDbEntity
  8
0
370
              25
  6
Continuous
 62
               7
100
AcDbVertex
100
AcDb2dVertex
 10
167.38197764584001
 20
93.207292170260004
 30
0.0
  0
VERTEX
  5
4CC
100
AcDbEntity
  8
0
370
              25
  6
Continuous
 62
               7
100
AcDbVertex
100
AcDb2dVertex
 10
167.564085877
 20
92.58044195075999
 30
0.0
  0
VERTEX
  5
4CD
100
AcDbEntity
  8
0
370
              25
  6
Continuous
 62
               7
100
AcDbVertex
100
AcDb2dVertex
 10
167.36856679127999
 20
91.954601058679984
 30
0.0
  0
VERTEX
  5
4CE
100
AcDbEntity
  8
0
370
              25
  6
Continuous
 62
               7
100
AcDbVertex
100
AcDb2dVertex
 10
166.81279539329998
 20
91.385380439439999
 30
0.0
  0
VERTEX
  5
4CF
100
AcDbEntity
  8
0
370
              25
  6
Continuous
 62
               7
100
AcDbVertex
100
AcDb2dVertex
 10
165.94615306512
 20
90.923356397779997
 30
0.0
  0
VERTEX
  5
4D0
100
AcDbEntity
  8
0
370
              25
  6
Continuous
 62
               7
100
AcDbVertex
100
AcDb2dVertex
 10
164.84564508579999
 20
90.609582336479988
 30
0.0
  0
VERTEX
  5
4D1
100
AcDbEntity
  8
0
370
              25
  6
Continuous
 62
               7
100
AcDbVertex
100
AcDb2dVertex
 10
163.60905838193997
 20
90.471939604399992
 30
0.0
  0
VERTEX
  5
4D2
100
AcDbEntity
  8
0
370
              25
  6
Continuous
 62
               7
100
AcDbVertex
100
AcDb2dVertex
 10
162.34626554811999
 20
90.522655804719989
 30
0.0
  0
SEQEND
  5
4D3
100
AcDbEntity
  8
0
370
              25
  6
Continuous
 62
               7
  0
ARC
  5
4D4
100
AcDbEntity
  8
0
370
              25
  6
Continuous
 62
               7
100
AcDbCircle
 10
159.70700521324
 20
91.315448034219997
 30
0.0
 40
1.9315187797104716
100
AcDbArc
 50
202.59351198050012
 51
219.77187544110018
  0
SPLINE
  5
4D5
100
AcDbEntity
  8
0
370
              25
  6
Continuous
 62
               7
100
AcDbSpline
210
0.0
220
0.0
230
1.0
 70
               8
 71
               2
 72
              16
 73
              13
 74
               0
 42
0.000001
 43
0.000001
 40
0.0
 40
0.0
 40
0.0
 40
1.0
 40
1.0
 40
2.0
 40
3.0
 40
4.0
 40
5.0
 40
6.0
 40
7.0
 40
8.0
 40
8.0
 40
9.0
 40
9.0
 40
9.0
 10
158.67615051189287
 20
92.603268344587661
 30
0.0
 10
158.67594685708565
 20
92.603159358372523
 30
0.0
 10
158.6757432022784
 20
92.603050372157369
 30
0.0
 10
158.64373421397548
 20
92.588171141686885
 30
0.0
 10
158.56206964249625
 20
92.520390186821032
 30
0.0
 10
158.4615957959538
 20
92.341254418590623
 30
0.0
 10
158.36331138064421
 20
92.103173940064522
 30
0.0
 10
158.23607842178518
 20
91.731798446272037
 30
0.0
 10
158.09963327624632
 20
91.251837979851047
 30
0.0
 10
157.98325836985015
 20
90.806841375485561
 30
0.0
 10
157.92558581033771
 20
90.58065751311436
 30
0.0
 10
157.92465455490839
 20
90.577016922549305
 30
0.0
 10
157.92372329947904
 20
90.57337633198425
 30
0.0
  0
LINE
  5
4D6
100
AcDbEntity
  8
0
370
              25
  6
Continuous
 62
               7
100
AcDbLine
 10
168.40584829303998
 20
92.159354941779995
 30
0.0
 11
168.18873769094
 21
92.359248095460003
 31
0.0
  0
ARC
  5
4D7
100
AcDbEntity
  8
0
370
              25
  6
Continuous
 62
               7
100
AcDbCircle
 10
166.92128751819999
 20
90.923699610199989
 30
0.0
 40
1.9315187797088986
100
AcDbArc
 50
22.593511980499873
 51
39.771875441099809
  0
SPLINE
  5
4D8
100
AcDbEntity
  8
0
370
              25
  6
Continuous
 62
               7
100
AcDbSpline
210
0.0
220
0.0
230
1.0
 70
               8
 71
               2
 72
              16
 73
              13
 74
               0
 42
0.000001
 43
0.000001
 40
0.0
 40
0.0
 40
0.0
 40
1.0
 40
1.0
 40
2.0
 40
3.0
 40
4.0
 40
5.0
 40
6.0
 40
7.0
 40
8.0
 40
8.0
 40
9.0
 40
9.0
 40
9.0
 10
167.66095090164484
 20
89.434693526165447
 30
0.0
 10
167.66191476708556
 20
89.438520726174346
 30
0.0
 10
167.66287863252629
 20
89.442347926183245
 30
0.0
 10
167.77224452122357
 20
89.884914828808647
 30
0.0
 10
167.94606522891297
 20
90.510006577115703
 30
0.0
 10
168.08248399383351
 20
90.916517328144025
 30
0.0
 10
168.2759956709817
 20
91.354269967687785
 30
0.0
 10
168.42350778202274
 20
91.517847829643387
 30
0.0
 10
168.52034019005708
 20
91.596606215774074
 30
0.0
 10
168.64218545668291
 20
91.647460824096342
 30
0.0
 10
168.70261799009472
 20
91.665168505180475
 30
0.0
 10
168.70359371121685
 20
91.665469908814742
 30
0.0
 10
168.70456943233896
 20
91.665771312448996
 30
0.0
  0
ARC
  5
4D9
100
AcDbEntity
  8
0
370
              25
  6
Continuous
 62
               7
100
AcDbCircle
 10
164.90819308109999
 20
93.748386752279998
 30
0.0
 40
5.1171891569812136
100
AcDbArc
 50
293.58222734169988
 51
302.54374245460002
  0
SPLINE
  5
4DA
100
AcDbEntity
  8
0
370
              25
  6
Continuous
 62
               7
100
AcDbSpline
210
0.0
220
0.0
230
1.0
 70
               8
 71
               2
 72
              16
 73
              13
 74
               0
 42
0.000001
 43
0.000001
 40
0.0
 40
0.0
 40
0.0
 40
1.0
 40
1.0
 40
2.0
 40
3.0
 40
4.0
 40
5.0
 40
6.0
 40
7.0
 40
8.0
 40
8.0
 40
9.0
 40
9.0
 40
9.0
 10
162.56924804332593
 20
88.394911598893472
 30
0.0
 10
162.57425846020948
 20
88.397854717424224
 30
0.0
 10
162.57926887709303
 20
88.400797835954975
 30
0.0
 10
162.90922289423725
 20
88.597381995365822
 30
0.0
 10
163.55814424245673
 20
88.95049381818842
 30
0.0
 10
164.17884557654352
 20
89.196231721710561
 30
0.0
 10
164.73629909205729
 20
89.323871771975064
 30
0.0
 10
165.3348782566128
 20
89.37568912269316
 30
0.0
 10
165.99555593329904
 20
89.307736563932082
 30
0.0
 10
166.63128417999849
 20
89.152371293413111
 30
0.0
 10
166.94525608643036
 20
89.061429604922793
 30
0.0
 10
166.95032812385455
 20
89.059989841117726
 30
0.0
 10
166.95540016127873
 20
89.05855007731266
 30
0.0
  0
ARC
  5
4DB
100
AcDbEntity
  8
0
370
              25
  6
Continuous
 62
               7
100
AcDbCircle
 10
163.26709635059999
 20
98.714946565139996
 30
0.0
 40
10.343602562965467
100
AcDbArc
 50
260.52846440239995
 51
266.13150664559993
  0
SPLINE
  5
4DC
100
AcDbEntity
  8
0
370
              25
  6
Continuous
 62
               7
100
AcDbSpline
210
0.0
220
0.0
230
1.0
 70
               8
 71
               2
 72
              16
 73
              13
 74
               0
 42
0.000001
 43
0.000001
 40
0.0
 40
0.0
 40
0.0
 40
1.0
 40
1.0
 40
2.0
 40
3.0
 40
4.0
 40
5.0
 40
6.0
 40
7.0
 40
8.0
 40
8.0
 40
9.0
 40
9.0
 40
9.0
 10
158.22244443891265
 20
90.079792701493659
 30
0.0
 10
158.22598331464815
 20
90.080158334928143
 30
0.0
 10
158.22952219038362
 20
90.080523968362627
 30
0.0
 10
158.39213041661873
 20
90.098178623745511
 30
0.0
 10
158.77598774496138
 20
90.129983831002733
 30
0.0
 10
159.33274747943685
 20
90.104302432983062
 30
0.0
 10
159.86301915685419
 20
89.910098579178026
 30
0.0
 10
160.35750588832619
 20
89.64153646428214
 30
0.0
 10
160.887655786322
 20
89.19828514886234
 30
0.0
 10
161.33600374049004
 20
88.751925839576558
 30
0.0
 10
161.55781310808661
 20
88.519804611031816
 30
0.0
 10
161.56139551671967
 20
88.516079016882486
 30
0.0
 10
161.56497792535274
 20
88.512353422733142
 30
0.0
  0
LINE
  5
4DD
100
AcDbEntity
  8
0
370
              25
  6
Continuous
 62
               7
100
AcDbLine
 10
166.95540016016
 20
83.427220059119989
 30
0.0
 11
166.95540016016
 21
89.058550076599985
 31
0.0
  0
LINE
  5
4DE
100
AcDbEntity
  8
0
370
              25
  6
Continuous
 62
               7
100
AcDbLine
 10
166.95540016016
 20
83.427220059119989
 30
0.0
 11
166.12938918328001
 21
83.042434623459997
 31
0.0
  0
LINE
  5
4DF
100
AcDbEntity
  8
0
370
              25
  6
Continuous
 62
               7
100
AcDbLine
 10
163.39525902290001
 20
82.628751849099984
 30
0.0
 11
166.12938918328001
 21
83.042434623459997
 31
0.0
  0
LINE
  5
4E0
100
AcDbEntity
  8
0
370
              25
  6
Continuous
 62
               7
100
AcDbLine
 10
163.39525902290001
 20
82.628751849099984
 30
0.0
 11
162.56924804347997
 21
82.76358157944
 31
0.0
  0
LINE
  5
4E1
100
AcDbEntity
  8
0
370
              25
  6
Continuous
 62
               7
100
AcDbLine
 10
162.56924804347997
 20
88.394911599460002
 30
0.0
 11
162.56924804347997
 21
82.76358157944
 31
0.0
  0
ARC
  5
4E2
100
AcDbEntity
  8
0
370
              25
  6
Continuous
 62
               7
100
AcDbCircle
 10
165.77731196261999
 20
93.798036200859997
 30
0.0
 40
1.1176932979961258
100
AcDbArc
 50
338.82612602459989
 51
54.057769534800286
  0
POLYLINE
  5
4E3
100
AcDbEntity
  8
0
370
              25
  6
Continuous
 62
               7
100
AcDb2dPolyline
 66
               1
 10
0.0
 20
0.0
 30
0.0
 75
               5
  0
VERTEX
  5
4E4
100
AcDbEntity
  8
0
370
              25
  6
Continuous
 62
               7
100
AcDbVertex
100
AcDb2dVertex
 10
160.16607732277998
 20
94.677415925459997
 30
0.0
  0
VERTEX
  5
4E5
100
AcDbEntity
  8
0
370
              25
  6
Continuous
 62
               7
100
AcDbVertex
100
AcDb2dVertex
 10
159.80874450938001
 20
94.214178048280004
 30
0.0
  0
VERTEX
  5
4E6
100
AcDbEntity
  8
0
370
              25
  6
Continuous
 62
               7
100
AcDbVertex
100
AcDb2dVertex
 10
159.72696304733998
 20
93.652500591500001
 30
0.0
  0
VERTEX
  5
4E7
100
AcDbEntity
  8
0
370
              25
  6
Continuous
 62
               7
100
AcDbVertex
100
AcDb2dVertex
 10
159.99631913803998
 20
93.105676790559997
 30
0.0
  0
VERTEX
  5
4E8
100
AcDbEntity
  8
0
370
              25
  6
Continuous
 62
               7
100
AcDbVertex
100
AcDb2dVertex
 10
160.59044802851997
 20
92.627234867079991
 30
0.0
  0
VERTEX
  5
4E9
100
AcDbEntity
  8
0
370
              25
  6
Continuous
 62
               7
100
AcDbVertex
100
AcDb2dVertex
 10
161.45119179343999
 20
92.264008052259996
 30
0.0
  0
VERTEX
  5
4EA
100
AcDbEntity
  8
0
370
              25
  6
Continuous
 62
               7
100
AcDbVertex
100
AcDb2dVertex
 10
162.49429398205999
 20
92.05155055489999
 30
0.0
  0
VERTEX
  5
4EB
100
AcDbEntity
  8
0
370
              25
  6
Continuous
 62
               7
100
AcDbVertex
100
AcDb2dVertex
 10
163.61765049328
 20
92.01066097703999
 30
0.0
  0
VERTEX
  5
4EC
100
AcDbEntity
  8
0
370
              25
  6
Continuous
 62
               7
100
AcDbVertex
100
AcDb2dVertex
 10
164.71129551959999
 20
92.145338421679995
 30
0.0
  0
VERTEX
  5
4ED
100
AcDbEntity
  8
0
370
              25
  6
Continuous
 62
               7
100
AcDbVertex
100
AcDb2dVertex
 10
165.6681788484
 20
92.442402882159996
 30
0.0
  0
VERTEX
  5
4EE
100
AcDbEntity
  8
0
370
              25
  6
Continuous
 62
               7
100
AcDbVertex
100
AcDb2dVertex
 10
166.39463361342001
 20
92.872775049099985
 30
0.0
  0
VERTEX
  5
4EF
100
AcDbEntity
  8
0
370
              25
  6
Continuous
 62
               7
100
AcDbVertex
100
AcDb2dVertex
 10
166.81954822205998
 20
93.394326045620005
 30
0.0
  0
VERTEX
  5
4F0
100
AcDbEntity
  8
0
370
              25
  6
Continuous
 62
               7
100
AcDbVertex
100
AcDb2dVertex
 10
166.81954822205998
 20
93.394326045620005
 30
0.0
  0
SEQEND
  5
4F1
100
AcDbEntity
  8
0
370
              25
  6
Continuous
 62
               7
  0
POLYLINE
  5
4F2
100
AcDbEntity
  8
0
370
              25
  6
Continuous
 62
               7
100
AcDb2dPolyline
 66
               1
 10
0.0
 20
0.0
 30
0.0
 75
               5
  0
VERTEX
  5
4F3
100
AcDbEntity
  8
0
370
              25
  6
Continuous
 62
               7
100
AcDbVertex
100
AcDb2dVertex
 10
162.44874653949998
 20
91.088154165719999
 30
0.0
  0
VERTEX
  5
4F4
100
AcDbEntity
  8
0
370
              25
  6
Continuous
 62
               7
100
AcDbVertex
100
AcDb2dVertex
 10
163.63451134601999
 20
91.044992697559991
 30
0.0
  0
VERTEX
  5
4F5
100
AcDbEntity
  8
0
370
              25
  6
Continuous
 62
               7
100
AcDbVertex
100
AcDb2dVertex
 10
164.78891537959998
 20
91.187152903460003
 30
0.0
  0
VERTEX
  5
4F6
100
AcDbEntity
  8
0
370
              25
  6
Continuous
 62
               7
100
AcDbVertex
100
AcDb2dVertex
 10
165.7989584446
 20
91.500720477999991
 30
0.0
  0
VERTEX
  5
4F7
100
AcDbEntity
  8
0
370
              25
  6
Continuous
 62
               7
100
AcDbVertex
100
AcDb2dVertex
 10
166.56577282917999
 20
91.955003110199996
 30
0.0
  0
VERTEX
  5
4F8
100
AcDbEntity
  8
0
370
              25
  6
Continuous
 62
               7
100
AcDbVertex
100
AcDb2dVertex
 10
167.01429326056001
 20
92.505528961140001
 30
0.0
  0
VERTEX
  5
4F9
100
AcDbEntity
  8
0
370
              25
  6
Continuous
 62
               7
100
AcDbVertex
100
AcDb2dVertex
 10
167.10061803329998
 20
93.098410630339998
 30
0.0
  0
VERTEX
  5
4FA
100
AcDbEntity
  8
0
370
              25
  6
Continuous
 62
               7
100
AcDbVertex
100
AcDb2dVertex
 10
167.08872849904
 20
93.157621621899992
 30
0.0
  0
SEQEND
  5
4FB
100
AcDbEntity
  8
0
370
              25
  6
Continuous
 62
               7
  0
POLYLINE
  5
4FC
100
AcDbEntity
  8
0
370
              25
  6
Continuous
 62
               7
100
AcDb2dPolyline
 66
               1
 10
0.0
 20
0.0
 30
0.0
 75
               5
  0
VERTEX
  5
4FD
100
AcDbEntity
  8
0
370
              25
  6
Continuous
 62
               7
100
AcDbVertex
100
AcDb2dVertex
 10
159.53956441273999
 20
93.157620872599992
 30
0.0
  0
VERTEX
  5
4FE
100
AcDbEntity
  8
0
370
              25
  6
Continuous
 62
               7
100
AcDbVertex
100
AcDb2dVertex
 10
159.52767469814
 20
92.778045596699997
 30
0.0
  0
VERTEX
  5
4FF
100
AcDbEntity
  8
0
370
              25
  6
Continuous
 62
               7
100
AcDbVertex
100
AcDb2dVertex
 10
159.811995336
 20
92.200842842039989
 30
0.0
  0
VERTEX
  5
500
100
AcDbEntity
  8
0
370
              25
  6
Continuous
 62
               7
100
AcDbVertex
100
AcDb2dVertex
 10
160.43913139185997
 20
91.695821047919992
 30
0.0
  0
VERTEX
  5
501
100
AcDbEntity
  8
0
370
              25
  6
Continuous
 62
               7
100
AcDbVertex
100
AcDb2dVertex
 10
161.34769437533998
 20
91.312415053239988
 30
0.0
  0
VERTEX
  5
502
100
AcDbEntity
  8
0
370
              25
  6
Continuous
 62
               7
100
AcDbVertex
100
AcDb2dVertex
 10
162.44874653949998
 20
91.088154165719999
 30
0.0
  0
SEQEND
  5
503
100
AcDbEntity
  8
0
370
              25
  6
Continuous
 62
               7
  0
POLYLINE
  5
504
100
AcDbEntity
  8
0
370
              25
  6
Continuous
 62
               7
100
AcDb2dPolyline
 66
               1
 10
0.0
 20
0.0
 30
0.0
 75
               5
  0
VERTEX
  5
505
100
AcDbEntity
  8
0
370
              25
  6
Continuous
 62
               7
100
AcDbVertex
100
AcDb2dVertex
 10
166.41414542606
 20
93.80425133448
 30
0.0
  0
VERTEX
  5
506
100
AcDbEntity
  8
0
370
              25
  6
Continuous
 62
               7
100
AcDbVertex
100
AcDb2dVertex
 10
166.40942184901999
 20
93.71870549338
 30
0.0
  0
VERTEX
  5
507
100
AcDbEntity
  8
0
370
              25
  6
Continuous
 62
               7
100
AcDbVertex
100
AcDb2dVertex
 10
166.16423641101997
 20
93.194541621719992
 30
0.0
  0
VERTEX
  5
508
100
AcDbEntity
  8
0
370
              25
  6
Continuous
 62
               7
100
AcDbVertex
100
AcDb2dVertex
 10
165.57528836108
 20
92.743917892539997
 30
0.0
  0
VERTEX
  5
509
100
AcDbEntity
  8
0
370
              25
  6
Continuous
 62
               7
100
AcDbVertex
100
AcDb2dVertex
 10
164.71361179893998
 20
92.421184880400006
 30
0.0
  0
VERTEX
  5
50A
100
AcDbEntity
  8
0
370
              25
  6
Continuous
 62
               7
100
AcDbVertex
100
AcDb2dVertex
 10
163.68314139353998
 20
92.265272281379993
 30
0.0
  0
VERTEX
  5
50B
100
AcDbEntity
  8
0
370
              25
  6
Continuous
 62
               7
100
AcDbVertex
100
AcDb2dVertex
 10
162.60816279165999
 20
92.294981645379991
 30
0.0
  0
VERTEX
  5
50C
100
AcDbEntity
  8
0
370
              25
  6
Continuous
 62
               7
100
AcDbVertex
100
AcDb2dVertex
 10
161.61833728591998
 20
92.506732227719993
 30
0.0
  0
VERTEX
  5
50D
100
AcDbEntity
  8
0
370
              25
  6
Continuous
 62
               7
100
AcDbVertex
100
AcDb2dVertex
 10
160.83305031446
 20
92.874981928099984
 30
0.0
  0
VERTEX
  5
50E
100
AcDbEntity
  8
0
370
              25
  6
Continuous
 62
               7
100
AcDbVertex
100
AcDb2dVertex
 10
160.34702167513998
 20
93.355316618939995
 30
0.0
  0
VERTEX
  5
50F
100
AcDbEntity
  8
0
370
              25
  6
Continuous
 62
               7
100
AcDbVertex
100
AcDb2dVertex
 10
160.21414730537998
 20
93.80425275687999
 30
0.0
  0
SEQEND
  5
510
100
AcDbEntity
  8
0
370
              25
  6
Continuous
 62
               7
  0
POLYLINE
  5
511
100
AcDbEntity
  8
0
370
              25
  6
Continuous
 62
               7
100
AcDb2dPolyline
 66
               1
 10
0.0
 20
0.0
 30
0.0
 75
               5
  0
VERTEX
  5
512
100
AcDbEntity
  8
0
370
              25
  6
Continuous
 62
               7
100
AcDbVertex
100
AcDb2dVertex
 10
162.43736053484
 20
90.717400693359991
 30
0.0
  0
VERTEX
  5
513
100
AcDbEntity
  8
0
370
              25
  6
Continuous
 62
               7
100
AcDbVertex
100
AcDb2dVertex
 10
161.3218200151
 20
90.94461160038
 30
0.0
  0
VERTEX
  5
514
100
AcDbEntity
  8
0
370
              25
  6
Continuous
 62
               7
100
AcDbVertex
100
AcDb2dVertex
 10
160.40130215585998
 20
91.333062413519997
 30
0.0
  0
VERTEX
  5
515
100
AcDbEntity
  8
0
370
              25
  6
Continuous
 62
               7
100
AcDbVertex
100
AcDb2dVertex
 10
159.76591614698
 20
91.844730795819999
 30
0.0
  0
VERTEX
  5
516
100
AcDbEntity
  8
0
370
              25
  6
Continuous
 62
               7
100
AcDbVertex
100
AcDb2dVertex
 10
159.47785261083999
 20
92.429526644259994
 30
0.0
  0
VERTEX
  5
517
100
AcDbEntity
  8
0
370
              25
  6
Continuous
 62
               7
100
AcDbVertex
100
AcDb2dVertex
 10
159.51414627459999
 20
92.901049706799995
 30
0.0
  0
SEQEND
  5
518
100
AcDbEntity
  8
0
370
              25
  6
Continuous
 62
               7
  0
POLYLINE
  5
519
100
AcDbEntity
  8
0
370
              25
  6
Continuous
 62
               7
100
AcDb2dPolyline
 66
               1
 10
0.0
 20
0.0
 30
0.0
 75
               5
  0
VERTEX
  5
51A
100
AcDbEntity
  8
0
370
              25
  6
Continuous
 62
               7
100
AcDbVertex
100
AcDb2dVertex
 10
167.11414677688001
 20
92.901050136059993
 30
0.0
  0
VERTEX
  5
51B
100
AcDbEntity
  8
0
370
              25
  6
Continuous
 62
               7
100
AcDbVertex
100
AcDb2dVertex
 10
167.1504401206
 20
92.754107209219995
 30
0.0
  0
VERTEX
  5
51C
100
AcDbEntity
  8
0
370
              25
  6
Continuous
 62
               7
100
AcDbVertex
100
AcDb2dVertex
 10
167.0629786877
 20
92.153423650619999
 30
0.0
  0
VERTEX
  5
51D
100
AcDbEntity
  8
0
370
              25
  6
Continuous
 62
               7
100
AcDbVertex
100
AcDb2dVertex
 10
166.60855665267999
 20
91.595654131159989
 30
0.0
  0
VERTEX
  5
51E
100
AcDbEntity
  8
0
370
              25
  6
Continuous
 62
               7
100
AcDbVertex
100
AcDb2dVertex
 10
165.83165314171998
 20
91.135394734179997
 30
0.0
  0
VERTEX
  5
51F
100
AcDbEntity
  8
0
370
              25
  6
Continuous
 62
               7
100
AcDbVertex
100
AcDb2dVertex
 10
164.808320243
 20
90.817701351279993
 30
0.0
  0
VERTEX
  5
520
100
AcDbEntity
  8
0
370
              25
  6
Continuous
 62
               7
100
AcDbVertex
100
AcDb2dVertex
 10
163.63872582831999
 20
90.673669561619988
 30
0.0
  0
VERTEX
  5
521
100
AcDbEntity
  8
0
370
              25
  6
Continuous
 62
               7
100
AcDbVertex
100
AcDb2dVertex
 10
162.43736053484
 20
90.717400693359991
 30
0.0
  0
SEQEND
  5
522
100
AcDbEntity
  8
0
370
              25
  6
Continuous
 62
               7
  0
LINE
  5
523
100
AcDbEntity
  8
0
370
              25
  6
Continuous
 62
               7
100
AcDbLine
 10
158.2224444384
 20
90.079792702639992
 30
0.0
 11
158.2224444384
 21
84.44846268261999
 31
0.0
  0
LINE
  5
524
100
AcDbEntity
  8
0
370
              25
  6
Continuous
 62
               7
100
AcDbLine
 10
161.56497792604
 20
82.881023404499985
 30
0.0
 11
161.56497792604
 21
88.512353421979995
 31
0.0
  0
LINE
  5
525
100
AcDbEntity
  8
0
370
              25
  6
Continuous
 62
               7
100
AcDbLine
 10
161.56497792604
 20
82.881023404499985
 30
0.0
 11
160.93550285275998
 21
82.916399239260002
 31
0.0
  0
LINE
  5
526
100
AcDbEntity
  8
0
370
              25
  6
Continuous
 62
               7
100
AcDbLine
 10
158.85191938468
 20
83.893471719960004
 30
0.0
 11
160.93550285275998
 21
82.916399239260002
 31
0.0
  0
LINE
  5
527
100
AcDbEntity
  8
0
370
              25
  6
Continuous
 62
               7
100
AcDbLine
 10
158.85191938468
 20
83.893471719960004
 30
0.0
 11
158.2224444384
 21
84.44846268261999
 31
0.0
  0
ARC
  5
528
100
AcDbEntity
  8
0
370
              25
  6
Continuous
 62
               7
100
AcDbCircle
 10
163.26709635059999
 20
93.083616547659986
 30
0.0
 40
10.343602562978017
100
AcDbArc
 50
260.52846440239995
 51
266.13150664559993
  0
LINE
  5
529
100
AcDbEntity
  8
0
370
              25
  6
Continuous
 62
               7
100
AcDbLine
 10
167.66095090044001
 20
89.43469352548
 30
0.0
 11
167.66095090044001
 21
83.803363508000004
 31
0.0
  0
ARC
  5
52A
100
AcDbEntity
  8
0
370
              25
  6
Continuous
 62
               7
100
AcDbCircle
 10
164.90819308109999
 20
88.117056734799988
 30
0.0
 40
5.1171891569811878
100
AcDbArc
 50
293.58222734170005
 51
302.54374245459991
  0
LINE
  5
52B
100
AcDbEntity
  8
0
370
              25
  6
Continuous
 62
               7
100
AcDbLine
 10
168.70456943295997
 20
86.034441293739988
 30
0.0
 11
168.70456943295997
 21
91.665771311219999
 31
0.0
  0
LINE
  5
52C
100
AcDbEntity
  8
0
370
              25
  6
Continuous
 62
               7
100
AcDbLine
 10
168.70456943295997
 20
86.034441293739988
 30
0.0
 11
168.50803360301998
 21
85.354472419999993
 31
0.0
  0
LINE
  5
52D
100
AcDbEntity
  8
0
370
              25
  6
Continuous
 62
               7
100
AcDbLine
 10
167.85748673291999
 20
83.96371721573999
 30
0.0
 11
168.50803360301998
 21
85.354472419999993
 31
0.0
  0
LINE
  5
52E
100
AcDbEntity
  8
0
370
              25
  6
Continuous
 62
               7
100
AcDbLine
 10
167.85748673291999
 20
83.96371721573999
 30
0.0
 11
167.81844989455999
 21
83.931867129579999
 31
0.0
  0
LINE
  5
52F
100
AcDbEntity
  8
0
370
              25
  6
Continuous
 62
               7
100
AcDbLine
 10
167.72437117746
 20
83.855108062879992
 30
0.0
 11
167.66095090044001
 21
83.803363508000004
 31
0.0
  0
LINE
  5
530
100
AcDbEntity
  8
0
370
              25
  6
Continuous
 62
               7
100
AcDbLine
 10
157.92372329847998
 20
84.942046313180001
 30
0.0
 11
157.92372329847998
 21
90.573376333200002
 31
0.0
  0
ARC
  5
531
100
AcDbEntity
  8
0
370
              25
  6
Continuous
 62
               7
100
AcDbCircle
 10
159.70700521324
 20
85.684118016740001
 30
0.0
 40
1.9315187797103763
100
AcDbArc
 50
202.59351198049987
 51
219.77187544109992
  0
SPLINE
  5
532
100
AcDbEntity
  8
0
370
              25
  6
Continuous
 62
               7
100
AcDbSpline
210
0.0
220
0.0
230
1.0
 70
               8
 71
               2
 72
              17
 73
              14
 74
               0
 42
0.000001
 43
0.000001
 40
0.0
 40
0.0
 40
0.0
 40
1.0
 40
1.0
 40
2.0
 40
3.0
 40
4.0
 40
5.0
 40
6.0
 40
7.0
 40
8.0
 40
9.0
 40
9.0
 40
10.0
 40
10.0
 40
10.0
 10
162.28933210074098
 20
80.661339537546837
 30
0.0
 10
162.29171694644961
 20
80.66115451874677
 30
0.0
 10
162.29410179215824
 20
80.660969499946702
 30
0.0
 10
162.48002066500547
 20
80.64607138833334
 30
0.0
 10
163.28665210163587
 20
80.592371732236543
 30
0.0
 10
164.59139244664919
 20
80.704809917514993
 30
0.0
 10
165.84017860052927
 20
81.014175219737695
 30
0.0
 10
166.73851345608804
 20
81.445922667482989
 30
0.0
 10
167.4330068092093
 20
81.960522069019305
 30
0.0
 10
167.69574750796878
 20
82.461991746463426
 30
0.0
 10
167.77992099615022
 20
82.800267844915012
 30
0.0
 10
167.80928397815651
 20
82.971120609672255
 30
0.0
 10
167.80978358761357
 20
82.973872809698548
 30
0.0
 10
167.81028319707062
 20
82.976625009724827
 30
0.0
  0
SPLINE
  5
533
100
AcDbEntity
  8
0
370
              25
  6
Continuous
 62
               7
100
AcDbSpline
210
0.0
220
0.0
230
1.0
 70
               8
 71
               2
 72
              21
 73
              18
 74
               0
 42
0.000001
 43
0.000001
 40
0.0
 40
0.0
 40
0.0
 40
1.0
 40
1.0
 40
2.0
 40
3.0
 40
4.0
 40
5.0
 40
6.0
 40
7.0
 40
8.0
 40
9.0
 40
10.0
 40
11.0
 40
12.0
 40
13.0
 40
13.0
 40
14.0
 40
14.0
 40
14.0
 10
158.81800953474738
 20
83.192493771874396
 30
0.0
 10
158.81799347247713
 20
83.192447260554189
 30
0.0
 10
158.81797741020688
 20
83.192400749233997
 30
0.0
 10
158.75736885268961
 20
82.999266438965932
 30
0.0
 10
158.89240316678709
 20
82.708325731787539
 30
0.0
 10
159.13511275585287
 20
82.361982712923151
 30
0.0
 10
159.7109428151374
 20
81.846504279466345
 30
0.0
 10
160.501372936754
 20
81.48605210111252
 30
0.0
 10
161.50490912075472
 20
81.176428682562161
 30
0.0
 10
162.98106840753186
 20
81.022586553315492
 30
0.0
 10
164.26447571433033
 20
81.09917020693311
 30
0.0
 10
165.56223323122313
 20
81.345002136215228
 30
0.0
 10
166.67571242941409
 20
81.831834258511066
 30
0.0
 10
167.5922438275187
 20
82.522843474868296
 30
0.0
 10
167.77554440884029
 20
83.203806457364578
 30
0.0
 10
167.80911756481163
 20
83.403216264008961
 30
0.0
 10
167.80970038094114
 20
83.406427023301163
 30
0.0
 10
167.81028319707062
 20
83.409637782593364
 30
0.0
  0
SPLINE
  5
534
100
AcDbEntity
  8
0
370
              25
  6
Continuous
 62
               7
100
AcDbSpline
210
0.0
220
0.0
230
1.0
 70
               8
 71
               2
 72
              21
 73
              18
 74
               0
 42
0.000001
 43
0.000001
 40
0.0
 40
0.0
 40
0.0
 40
1.0
 40
1.0
 40
2.0
 40
3.0
 40
4.0
 40
5.0
 40
6.0
 40
7.0
 40
8.0
 40
9.0
 40
10.0
 40
11.0
 40
12.0
 40
13.0
 40
13.0
 40
14.0
 40
14.0
 40
14.0
 10
158.81800953474738
 20
83.625506544742933
 30
0.0
 10
158.81799347247713
 20
83.625460033422712
 30
0.0
 10
158.81797741020688
 20
83.625413522102505
 30
0.0
 10
158.75736885266363
 20
83.432279213127984
 30
0.0
 10
158.8924031666775
 20
83.141338510152792
 30
0.0
 10
159.13511275594652
 20
82.794995481092343
 30
0.0
 10
159.71094281578331
 20
82.279517019883841
 30
0.0
 10
160.50137293417848
 20
81.919065003331312
 30
0.0
 10
161.50490912947456
 20
81.609440838043781
 30
0.0
 10
162.98106840028865
 20
81.455599483045887
 30
0.0
 10
164.26447571473685
 20
81.532182959342691
 30
0.0
 10
165.56223323124567
 20
81.778014907953661
 30
0.0
 10
166.67571242937521
 20
82.264847033336181
 30
0.0
 10
167.59224382753885
 20
82.955856246721922
 30
0.0
 10
167.77554440882784
 20
83.636819230857668
 30
0.0
 10
167.80911756481129
 20
83.836229036895332
 30
0.0
 10
167.80970038094097
 20
83.83943979617861
 30
0.0
 10
167.81028319707062
 20
83.842650555461887
 30
0.0
  0
SPLINE
  5
535
100
AcDbEntity
  8
0
370
              25
  6
Continuous
 62
               7
100
AcDbSpline
210
0.0
220
0.0
230
1.0
 70
               8
 71
               2
 72
              22
 73
              19
 74
               0
 42
0.000001
 43
0.000001
 40
0.0
 40
0.0
 40
0.0
 40
1.0
 40
1.0
 40
2.0
 40
3.0
 40
4.0
 40
5.0
 40
6.0
 40
7.0
 40
8.0
 40
9.0
 40
10.0
 40
11.0
 40
12.0
 40
13.0
 40
14.0
 40
14.0
 40
15.0
 40
15.0
 40
15.0
 10
158.87376038352022
 20
83.883229865892744
 30
0.0
 10
158.87430687463305
 20
83.880868593092146
 30
0.0
 10
158.87485336574588
 20
83.878507320291547
 30
0.0
 10
158.90614037733084
 20
83.731746542743238
 30
0.0
 10
159.01865428098017
 20
83.364874079220442
 30
0.0
 10
159.3745399231131
 20
82.977058996623512
 30
0.0
 10
160.07849937283336
 20
82.503791742975679
 30
0.0
 10
161.09954547942647
 20
82.158986147548646
 30
0.0
 10
161.8881643317392
 20
82.002194209792492
 30
0.0
 10
162.98157121135662
 20
81.888670025794809
 30
0.0
 10
164.49926140273809
 20
81.97925292704879
 30
0.0
 10
165.87900651800092
 20
82.324101934261023
 30
0.0
 10
166.68457443432411
 20
82.727392740329037
 30
0.0
 10
167.18304327534275
 20
83.051870182379687
 30
0.0
 10
167.55622612022009
 20
83.436149154456302
 30
0.0
 10
167.63919907936179
 20
83.721134090385462
 30
0.0
 10
167.65623566745182
 20
83.793493276634422
 30
0.0
 10
167.65651880416675
 20
83.794659242580991
 30
0.0
 10
167.65680194088165
 20
83.795825208527575
 30
0.0
  0
SPLINE
  5
536
100
AcDbEntity
  8
0
370
              25
  6
Continuous
 62
               7
100
AcDbSpline
210
0.0
220
0.0
230
1.0
 70
               8
 71
               2
 72
              19
 73
              16
 74
               0
 42
0.000001
 43
0.000001
 40
0.0
 40
0.0
 40
0.0
 40
1.0
 40
1.0
 40
2.0
 40
3.0
 40
4.0
 40
5.0
 40
6.0
 40
7.0
 40
8.0
 40
9.0
 40
10.0
 40
11.0
 40
11.0
 40
12.0
 40
12.0
 40
12.0
 10
159.0389232789646
 20
83.861040947568156
 30
0.0
 10
159.03905647311592
 20
83.860629030617645
 30
0.0
 10
159.03918966726724
 20
83.860217113667133
 30
0.0
 10
159.10787186008091
 20
83.626115661530022
 30
0.0
 10
159.51390641137783
 20
83.300122680284218
 30
0.0
 10
160.36616819423156
 20
82.780150766077398
 30
0.0
 10
161.6337971095293
 20
82.477722852246444
 30
0.0
 10
162.91683862263395
 20
82.303025842987765
 30
0.0
 10
164.37956701129107
 20
82.415094881348168
 30
0.0
 10
165.47939068976541
 20
82.64044222077537
 30
0.0
 10
166.35810078619943
 20
82.964941930261375
 30
0.0
 10
166.79061196312699
 20
83.215807680036121
 30
0.0
 10
167.03147733595063
 20
83.431419134360539
 30
0.0
 10
167.13218860554082
 20
83.539366262641948
 30
0.0
 10
167.13327958060063
 20
83.540508134726721
 30
0.0
 10
167.13437055566047
 20
83.541650006811494
 30
0.0
  0
LINE
  5
537
100
AcDbEntity
  8
0
370
              25
  6
Continuous
 62
               7
100
AcDbLine
 10
162.2893321009
 20
80.661339538059991
 30
0.0
 11
162.2893321009
 21
80.714839545360007
 31
0.0
  0
SPLINE
  5
538
100
AcDbEntity
  8
0
370
              25
  6
Continuous
 62
               7
100
AcDbSpline
210
0.0
220
0.0
230
1.0
 70
               8
 71
               2
 72
              18
 73
              15
 74
               0
 42
0.000001
 43
0.000001
 40
0.0
 40
0.0
 40
0.0
 40
1.0
 40
1.0
 40
2.0
 40
3.0
 40
4.0
 40
5.0
 40
6.0
 40
7.0
 40
8.0
 40
9.0
 40
10.0
 40
10.0
 40
11.0
 40
11.0
 40
11.0
 10
167.73023722696641
 20
83.031218619971099
 30
0.0
 10
167.73034314876088
 20
83.029310423736547
 30
0.0
 10
167.73044907055532
 20
83.02740222750198
 30
0.0
 10
167.73849636966048
 20
82.90898679376032
 30
0.0
 10
167.73835261214626
 20
82.673364643564526
 30
0.0
 10
167.65709355432878
 20
82.341853788198392
 30
0.0
 10
167.33287436607492
 20
81.94853567033357
 30
0.0
 10
166.68628284055779
 20
81.451895528429247
 30
0.0
 10
165.72506119270926
 20
81.043914095330706
 30
0.0
 10
164.90169475449551
 20
80.826428725490757
 30
0.0
 10
163.80065396628396
 20
80.668000757095427
 30
0.0
 10
162.69301806697132
 20
80.696468017234253
 30
0.0
 10
162.30194207849024
 20
80.714301468861663
 30
0.0
 10
162.29563708961561
 20
80.71457050762794
 30
0.0
 10
162.28933210074098
 20
80.714839546394231
 30
0.0
  0
SPLINE
  5
539
100
AcDbEntity
  8
0
370
              25
  6
Continuous
 62
               7
100
AcDbSpline
210
0.0
220
0.0
230
1.0
 70
               8
 71
               2
 72
              17
 73
              14
 74
               0
 42
0.000001
 43
0.000001
 40
0.0
 40
0.0
 40
0.0
 40
1.0
 40
1.0
 40
2.0
 40
3.0
 40
4.0
 40
5.0
 40
6.0
 40
7.0
 40
8.0
 40
9.0
 40
9.0
 40
10.0
 40
10.0
 40
10.0
 10
162.28933210074098
 20
81.147852319262768
 30
0.0
 10
162.28395378413435
 20
81.148727586992223
 30
0.0
 10
162.27857546752773
 20
81.149602854721678
 30
0.0
 10
161.9437955137432
 20
81.202821071952641
 30
0.0
 10
161.202742147799
 20
81.334031269014872
 30
0.0
 10
160.27023332513434
 20
81.606825530788271
 30
0.0
 10
159.51795375992549
 20
82.053166163465676
 30
0.0
 10
159.10470622548911
 20
82.438550655115662
 30
0.0
 10
158.87113089118586
 20
82.803965199445045
 30
0.0
 10
158.84977256002833
 20
83.133664441130435
 30
0.0
 10
158.88794596460568
 20
83.377706230048773
 30
0.0
 10
158.9150835374594
 20
83.500118546173283
 30
0.0
 10
158.91550481944211
 20
83.502092160282558
 30
0.0
 10
158.91592610142479
 20
83.504065774391833
 30
0.0
  0
SPLINE
  5
53A
100
AcDbEntity
  8
0
370
              25
  6
Continuous
 62
               7
100
AcDbSpline
210
0.0
220
0.0
230
1.0
 70
               8
 71
               2
 72
              18
 73
              15
 74
               0
 42
0.000001
 43
0.000001
 40
0.0
 40
0.0
 40
0.0
 40
1.0
 40
1.0
 40
2.0
 40
3.0
 40
4.0
 40
5.0
 40
6.0
 40
7.0
 40
8.0
 40
9.0
 40
10.0
 40
10.0
 40
11.0
 40
11.0
 40
11.0
 10
167.74972332018868
 20
83.764807599703303
 30
0.0
 10
167.7499958409874
 20
83.761721181304864
 30
0.0
 10
167.75026836178611
 20
83.758634762906411
 30
0.0
 10
167.78944223533023
 20
83.468022566018973
 30
0.0
 10
167.72064279480563
 20
82.866159662406901
 30
0.0
 10
167.30987148899308
 20
82.366315014666242
 30
0.0
 10
166.78178185424508
 20
81.96000818433032
 30
0.0
 10
165.95037704189085
 20
81.54895052469071
 30
0.0
 10
165.02315092315311
 20
81.285463207618662
 30
0.0
 10
164.27478440311609
 20
81.159428600926503
 30
0.0
 10
163.50745298619319
 20
81.111827608301894
 30
0.0
 10
162.70505817688755
 20
81.128858086181481
 30
0.0
 10
162.30231752476959
 20
81.147298080351746
 30
0.0
 10
162.29582481275528
 20
81.14757519980725
 30
0.0
 10
162.28933210074098
 20
81.147852319262768
 30
0.0
  0
SPLINE
  5
53B
100
AcDbEntity
  8
0
370
              25
  6
Continuous
 62
               7
100
AcDbSpline
210
0.0
220
0.0
230
1.0
 70
               8
 71
               2
 72
              18
 73
              15
 74
               0
 42
0.000001
 43
0.000001
 40
0.0
 40
0.0
 40
0.0
 40
1.0
 40
1.0
 40
2.0
 40
3.0
 40
4.0
 40
5.0
 40
6.0
 40
7.0
 40
8.0
 40
9.0
 40
10.0
 40
10.0
 40
11.0
 40
11.0
 40
11.0
 10
162.28933210074098
 20
81.580864688856792
 30
0.0
 10
162.28407968787582
 20
81.581717671200437
 30
0.0
 10
162.27882727501066
 20
81.582570653544082
 30
0.0
 10
161.99441179939291
 20
81.628029645422444
 30
0.0
 10
161.39288980575196
 20
81.732926035766212
 30
0.0
 10
160.65483653765415
 20
81.909427647983023
 30
0.0
 10
160.039058630466
 20
82.177023543341036
 30
0.0
 10
159.46563691287946
 20
82.523033691790786
 30
0.0
 10
159.04965287692997
 20
82.92211260523321
 30
0.0
 10
158.87977150263748
 20
83.223633220188191
 30
0.0
 10
158.86458689466448
 20
83.452432056506979
 30
0.0
 10
158.88546877492297
 20
83.607088877914023
 30
0.0
 10
158.89767429054334
 20
83.675720198483845
 30
0.0
 10
158.89786489769745
 20
83.676826858837515
 30
0.0
 10
158.89805550485158
 20
83.677933519191185
 30
0.0
  0
SPLINE
  5
53C
100
AcDbEntity
  8
0
370
              25
  6
Continuous
 62
               7
100
AcDbSpline
210
0.0
220
0.0
230
1.0
 70
               8
 71
               2
 72
              18
 73
              15
 74
               0
 42
0.000001
 43
0.000001
 40
0.0
 40
0.0
 40
0.0
 40
1.0
 40
1.0
 40
2.0
 40
3.0
 40
4.0
 40
5.0
 40
6.0
 40
7.0
 40
8.0
 40
9.0
 40
10.0
 40
10.0
 40
11.0
 40
11.0
 40
11.0
 10
167.73023722696641
 20
83.897243762433646
 30
0.0
 10
167.73034314875741
 20
83.895335567942141
 30
0.0
 10
167.73044907054842
 20
83.893427373450635
 30
0.0
 10
167.73849636941742
 20
83.775012049738805
 30
0.0
 10
167.73835261167719
 20
83.539390098307308
 30
0.0
 10
167.65709355435303
 20
83.207879413701406
 30
0.0
 10
167.3328743665781
 20
82.814561247043471
 30
0.0
 10
166.68628283970324
 20
82.31792107793936
 30
0.0
 10
165.72506119116139
 20
81.90993967586769
 30
0.0
 10
164.9016947547008
 20
81.692454076669094
 30
0.0
 10
163.80065396894324
 20
81.534025815929539
 30
0.0
 10
162.69301806759788
 20
81.562493125362678
 30
0.0
 10
162.30194207850855
 20
81.580326610320583
 30
0.0
 10
162.29563708962476
 20
81.580595649588687
 30
0.0
 10
162.28933210074098
 20
81.580864688856792
 30
0.0
  0
SPLINE
  5
53D
100
AcDbEntity
  8
0
370
              25
  6
Continuous
 62
               7
100
AcDbSpline
210
0.0
220
0.0
230
1.0
 70
               8
 71
               2
 72
              18
 73
              15
 74
               0
 42
0.000001
 43
0.000001
 40
0.0
 40
0.0
 40
0.0
 40
1.0
 40
1.0
 40
2.0
 40
3.0
 40
4.0
 40
5.0
 40
6.0
 40
7.0
 40
8.0
 40
9.0
 40
10.0
 40
10.0
 40
11.0
 40
11.0
 40
11.0
 10
162.28933210074098
 20
82.013877461725315
 30
0.0
 10
162.28406766787043
 20
82.014729873238593
 30
0.0
 10
162.27880323499991
 20
82.015582284751858
 30
0.0
 10
161.9937018296383
 20
82.061008703737542
 30
0.0
 10
161.39127954487921
 20
82.165898306478311
 30
0.0
 10
160.67398648421329
 20
82.337773490922174
 30
0.0
 10
160.07406278041469
 20
82.594746625055507
 30
0.0
 10
159.59650569951216
 20
82.878375734801907
 30
0.0
 10
159.28484982075508
 20
83.121526967867851
 30
0.0
 10
159.03056225575361
 20
83.354227913377628
 30
0.0
 10
158.86990190416162
 20
83.649213986598809
 30
0.0
 10
158.87605466103551
 20
83.830889131080582
 30
0.0
 10
158.8819964392448
 20
83.878568645243135
 30
0.0
 10
158.8820395702387
 20
83.878946866498254
 30
0.0
 10
158.88208270123263
 20
83.879325087753372
 30
0.0
  0
SPLINE
  5
53E
100
AcDbEntity
  8
0
370
              25
  6
Continuous
 62
               7
100
AcDbSpline
210
0.0
220
0.0
230
1.0
 70
               8
 71
               2
 72
              18
 73
              15
 74
               0
 42
0.000001
 43
0.000001
 40
0.0
 40
0.0
 40
0.0
 40
1.0
 40
1.0
 40
2.0
 40
3.0
 40
4.0
 40
5.0
 40
6.0
 40
7.0
 40
8.0
 40
9.0
 40
10.0
 40
10.0
 40
11.0
 40
11.0
 40
11.0
 10
167.69589943401843
 20
83.800599813694603
 30
0.0
 10
167.69375493445187
 20
83.797509763491817
 30
0.0
 10
167.69161043488532
 20
83.794419713289031
 30
0.0
 10
167.56154858586373
 20
83.601940510139755
 30
0.0
 10
167.26957178739062
 20
83.226923773202074
 30
0.0
 10
166.90884872274853
 20
82.917766876304427
 30
0.0
 10
166.44793190787266
 20
82.640949238721191
 30
0.0
 10
165.80474542412546
 20
82.376707299654896
 30
0.0
 10
165.08559308886592
 20
82.167772046657973
 30
0.0
 10
164.29304920065937
 20
82.024263892379722
 30
0.0
 10
163.4740504106384
 20
81.977921729129648
 30
0.0
 10
162.69383237019412
 20
81.995446886313232
 30
0.0
 10
162.30196588222356
 20
82.013337658151158
 30
0.0
 10
162.29564899148227
 20
82.013607559938237
 30
0.0
 10
162.28933210074098
 20
82.013877461725315
 30
0.0
  0
SPLINE
  5
53F
100
AcDbEntity
  8
0
370
              25
  6
Continuous
 62
               7
100
AcDbSpline
210
0.0
220
0.0
230
1.0
 70
               8
 71
               2
 72
              16
 73
              13
 74
               0
 42
0.000001
 43
0.000001
 40
0.0
 40
0.0
 40
0.0
 40
1.0
 40
1.0
 40
2.0
 40
3.0
 40
4.0
 40
5.0
 40
6.0
 40
7.0
 40
8.0
 40
8.0
 40
9.0
 40
9.0
 40
9.0
 10
162.28933210074098
 20
82.44689023459388
 30
0.0
 10
162.28441835429336
 20
82.447715242854485
 30
0.0
 10
162.27950460784575
 20
82.448540251115105
 30
0.0
 10
161.97415578310333
 20
82.498908953186202
 30
0.0
 10
161.37129009405376
 20
82.608443940241088
 30
0.0
 10
160.679122605576
 20
82.772183744507046
 30
0.0
 10
160.06166328587838
 20
83.009444905227838
 30
0.0
 10
159.57731361533502
 20
83.288784351167251
 30
0.0
 10
159.37230699263446
 20
83.530278111921319
 30
0.0
 10
159.29054964864028
 20
83.64622595002551
 30
0.0
 10
159.25175517872583
 20
83.70468013593684
 30
0.0
 10
159.25112519660848
 20
83.705621962566426
 30
0.0
 10
159.25049521449114
 20
83.706563789196011
 30
0.0
  0
SPLINE
  5
540
100
AcDbEntity
  8
0
370
              25
  6
Continuous
 62
               7
100
AcDbSpline
210
0.0
220
0.0
230
1.0
 70
               8
 71
               2
 72
              15
 73
              12
 74
               0
 42
0.000001
 43
0.000001
 40
0.0
 40
0.0
 40
0.0
 40
1.0
 40
1.0
 40
2.0
 40
3.0
 40
4.0
 40
5.0
 40
6.0
 40
7.0
 40
7.0
 40
8.0
 40
8.0
 40
8.0
 10
166.47452929790606
 20
83.164883180737505
 30
0.0
 10
166.47214309272016
 20
83.163567129679649
 30
0.0
 10
166.46975688753429
 20
83.162251078621793
 30
0.0
 10
166.17653416543985
 20
82.992192278492482
 30
0.0
 10
165.53686288515311
 20
82.710257129652817
 30
0.0
 10
164.82772244769851
 20
82.535985055589805
 30
0.0
 10
164.08971673917594
 20
82.438905884252691
 30
0.0
 10
163.34662633473394
 20
82.41484959456109
 30
0.0
 10
162.64924815181897
 20
82.431886034903982
 30
0.0
 10
162.30057955925676
 20
82.446445269671997
 30
0.0
 10
162.29495582999886
 20
82.446667752132939
 30
0.0
 10
162.28933210074098
 20
82.44689023459388
 30
0.0
  0
ARC
  5
541
100
AcDbEntity
  8
0
370
              25
  6
Continuous
 62
               7
100
AcDbCircle
 10
163.27939065671998
 20
92.29879540204
 30
0.0
 40
9.6707377063638376
100
AcDbArc
 50
255.97359231440001
 51
270.68649645869999
  0
LINE
  5
542
100
AcDbEntity
  8
0
370
              25
  6
Continuous
 62
               7
100
AcDbLine
 10
162.2893321009
 20
80.714839545360007
 30
0.0
 11
162.3509340478
 21
80.981782242359998
 31
0.0
  0
SPLINE
  5
543
100
AcDbEntity
  8
0
370
              25
  6
Continuous
 62
               7
100
AcDbSpline
210
0.0
220
0.0
230
1.0
 70
               8
 71
               2
 72
              16
 73
              13
 74
               0
 42
0.000001
 43
0.000001
 40
0.0
 40
0.0
 40
0.0
 40
1.0
 40
1.0
 40
2.0
 40
3.0
 40
4.0
 40
5.0
 40
6.0
 40
7.0
 40
8.0
 40
8.0
 40
9.0
 40
9.0
 40
9.0
 10
162.35093404797516
 20
80.981782241826522
 30
0.0
 10
162.35642788029139
 20
80.981546095373048
 30
0.0
 10
162.36192171260765
 20
80.981309948919574
 30
0.0
 10
162.70291359855551
 20
80.965384405443032
 30
0.0
 10
163.38071006078962
 20
80.947533999452929
 30
0.0
 10
164.19501063279642
 20
80.985045128262414
 30
0.0
 10
165.15774025711673
 20
81.173813289567491
 30
0.0
 10
165.79770845394273
 20
81.377772724335912
 30
0.0
 10
166.24489630003046
 20
81.53967589830819
 30
0.0
 10
166.67938436164042
 20
81.797688436053733
 30
0.0
 10
166.80102654850972
 20
81.946944326411369
 30
0.0
 10
166.80118983994697
 20
81.947136890625472
 30
0.0
 10
166.80135313138419
 20
81.947329454839561
 30
0.0
  0
SPLINE
  5
544
100
AcDbEntity
  8
0
370
              25
  6
Continuous
 62
               7
100
AcDbSpline
210
0.0
220
0.0
230
1.0
 70
               8
 71
               2
 72
              15
 73
              12
 74
               0
 42
0.000001
 43
0.000001
 40
0.0
 40
0.0
 40
0.0
 40
1.0
 40
1.0
 40
2.0
 40
3.0
 40
4.0
 40
5.0
 40
6.0
 40
7.0
 40
7.0
 40
8.0
 40
8.0
 40
8.0
 10
159.63962653853906
 20
82.408776138374776
 30
0.0
 10
159.63984506855729
 20
82.408476561245948
 30
0.0
 10
159.64006359857552
 20
82.408176984117134
 30
0.0
 10
159.71278059051056
 20
82.298347475703977
 30
0.0
 10
159.98309539736269
 20
82.075144500846406
 30
0.0
 10
160.41787086315796
 20
81.866810313983564
 30
0.0
 10
160.95799620245899
 20
81.690575248371673
 30
0.0
 10
161.53188619817053
 20
81.559759299715253
 30
0.0
 10
162.0704941852413
 20
81.461914458013524
 30
0.0
 10
162.34217973810743
 20
81.416280134100461
 30
0.0
 10
162.34655689304128
 20
81.415537372760497
 30
0.0
 10
162.35093404797516
 20
81.414794611420518
 30
0.0
  0
SPLINE
  5
545
100
AcDbEntity
  8
0
370
              25
  6
Continuous
 62
               7
100
AcDbSpline
210
0.0
220
0.0
230
1.0
 70
               8
 71
               2
 72
              16
 73
              13
 74
               0
 42
0.000001
 43
0.000001
 40
0.0
 40
0.0
 40
0.0
 40
1.0
 40
1.0
 40
2.0
 40
3.0
 40
4.0
 40
5.0
 40
6.0
 40
7.0
 40
8.0
 40
8.0
 40
9.0
 40
9.0
 40
9.0
 10
162.35093404797516
 20
81.414794611420518
 30
0.0
 10
162.35642788028417
 20
81.414558466648657
 30
0.0
 10
162.36192171259316
 20
81.41432232187681
 30
0.0
 10
162.70291359805086
 20
81.398396884604935
 30
0.0
 10
163.38071005972137
 20
81.380546670540056
 30
0.0
 10
164.19501063122232
 20
81.418057939580422
 30
0.0
 10
165.15774025679656
 20
81.606826076754558
 30
0.0
 10
165.79770845408461
 20
81.810785490859047
 30
0.0
 10
166.24489630019244
 20
81.972688663929958
 30
0.0
 10
166.67938436163695
 20
82.230701209078731
 30
0.0
 10
166.8010265485097
 20
82.379957099280432
 30
0.0
 10
166.80118983994694
 20
82.380149663494251
 30
0.0
 10
166.80135313138419
 20
82.380342227708084
 30
0.0
  0
SPLINE
  5
546
100
AcDbEntity
  8
0
370
              25
  6
Continuous
 62
               7
100
AcDbSpline
210
0.0
220
0.0
230
1.0
 70
               8
 71
               2
 72
              15
 73
              12
 74
               0
 42
0.000001
 43
0.000001
 40
0.0
 40
0.0
 40
0.0
 40
1.0
 40
1.0
 40
2.0
 40
3.0
 40
4.0
 40
5.0
 40
6.0
 40
7.0
 40
7.0
 40
8.0
 40
8.0
 40
8.0
 10
159.63962653853906
 20
82.841788911243313
 30
0.0
 10
159.63984506855871
 20
82.841489332891953
 30
0.0
 10
159.64006359857839
 20
82.841189754540594
 30
0.0
 10
159.7127805931101
 20
82.731359763797116
 30
0.0
 10
159.98309540111012
 20
82.50815635060728
 30
0.0
 10
160.41787086577119
 20
82.299822369905897
 30
0.0
 10
160.9579962028451
 20
82.123587709756649
 30
0.0
 10
161.53188619796762
 20
81.99277196272179
 30
0.0
 10
162.07049418515248
 20
81.894927203833518
 30
0.0
 10
162.34217973810476
 20
81.849292906063269
 30
0.0
 10
162.34655689303997
 20
81.848550145176176
 30
0.0
 10
162.35093404797516
 20
81.847807384289084
 30
0.0
  0
SPLINE
  5
547
100
AcDbEntity
  8
0
370
              25
  6
Continuous
 62
               7
100
AcDbSpline
210
0.0
220
0.0
230
1.0
 70
               8
 71
               2
 72
              16
 73
              13
 74
               0
 42
0.000001
 43
0.000001
 40
0.0
 40
0.0
 40
0.0
 40
1.0
 40
1.0
 40
2.0
 40
3.0
 40
4.0
 40
5.0
 40
6.0
 40
7.0
 40
8.0
 40
8.0
 40
9.0
 40
9.0
 40
9.0
 10
162.35093404797516
 20
81.847807384289084
 30
0.0
 10
162.35642788028417
 20
81.847571239517222
 30
0.0
 10
162.36192171259316
 20
81.847335094745361
 30
0.0
 10
162.70291359805086
 20
81.8314096574735
 30
0.0
 10
163.38071005972137
 20
81.813559443408579
 30
0.0
 10
164.19501063122232
 20
81.851070712448987
 30
0.0
 10
165.15774025679656
 20
82.039838849623095
 30
0.0
 10
165.79770845408461
 20
82.243798263727555
 30
0.0
 10
166.24489630019244
 20
82.405701436798481
 30
0.0
 10
166.67938436163695
 20
82.663713981947339
 30
0.0
 10
166.8010265485097
 20
82.812969872148969
 30
0.0
 10
166.80118983994694
 20
82.813162436362802
 30
0.0
 10
166.80135313138419
 20
82.813355000576621
 30
0.0
  0
SPLINE
  5
548
100
AcDbEntity
  8
0
370
              25
  6
Continuous
 62
               7
100
AcDbSpline
210
0.0
220
0.0
230
1.0
 70
               8
 71
               2
 72
              15
 73
              12
 74
               0
 42
0.000001
 43
0.000001
 40
0.0
 40
0.0
 40
0.0
 40
1.0
 40
1.0
 40
2.0
 40
3.0
 40
4.0
 40
5.0
 40
6.0
 40
7.0
 40
7.0
 40
8.0
 40
8.0
 40
8.0
 10
159.63962653853906
 20
83.274801684111836
 30
0.0
 10
159.63984506855871
 20
83.274502105760476
 30
0.0
 10
159.64006359857839
 20
83.274202527409116
 30
0.0
 10
159.7127805931101
 20
83.164372536665638
 30
0.0
 10
159.98309540111012
 20
82.941169123475802
 30
0.0
 10
160.41787086577119
 20
82.732835142774391
 30
0.0
 10
160.9579962028451
 20
82.556600482625214
 30
0.0
 10
161.53188619796762
 20
82.425784735590312
 30
0.0
 10
162.07049418515248
 20
82.327939976702012
 30
0.0
 10
162.34217973810476
 20
82.282305678931806
 30
0.0
 10
162.34655689303997
 20
82.281562918044699
 30
0.0
 10
162.35093404797516
 20
82.280820157157606
 30
0.0
  0
SPLINE
  5
549
100
AcDbEntity
  8
0
370
              25
  6
Continuous
 62
               7
100
AcDbSpline
210
0.0
220
0.0
230
1.0
 70
               8
 71
               2
 72
              16
 73
              13
 74
               0
 42
0.000001
 43
0.000001
 40
0.0
 40
0.0
 40
0.0
 40
1.0
 40
1.0
 40
2.0
 40
3.0
 40
4.0
 40
5.0
 40
6.0
 40
7.0
 40
8.0
 40
8.0
 40
9.0
 40
9.0
 40
9.0
 10
162.35093404797516
 20
82.280820157157606
 30
0.0
 10
162.35642788028417
 20
82.280584012385759
 30
0.0
 10
162.36192171259316
 20
82.280347867613898
 30
0.0
 10
162.70291359805086
 20
82.264422430342094
 30
0.0
 10
163.38071005972137
 20
82.246572216277102
 30
0.0
 10
164.19501063122232
 20
82.284083485317495
 30
0.0
 10
165.15774025679656
 20
82.472851622491604
 30
0.0
 10
165.79770845408461
 20
82.676811036596106
 30
0.0
 10
166.24489630019244
 20
82.838714209667046
 30
0.0
 10
166.67938436163695
 20
83.096726754815677
 30
0.0
 10
166.8010265485097
 20
83.245982645017492
 30
0.0
 10
166.80118983994694
 20
83.246175209231325
 30
0.0
 10
166.80135313138419
 20
83.246367773445144
 30
0.0
  0
LINE
  5
54A
100
AcDbEntity
  8
0
370
              25
  6
Continuous
 62
               7
100
AcDbLine
 10
161.50422522559998
 20
80.994377088899995
 30
0.0
 11
162.3509340478
 21
80.981782242359998
 31
0.0
  0
LINE
  5
54B
100
AcDbEntity
  8
0
370
              25
  6
Continuous
 62
               7
100
AcDbLine
 10
161.50422522559998
 20
80.940877081599993
 30
0.0
 11
161.50422522559998
 21
80.994377088899995
 31
0.0
  0
ARC
  5
54C
100
AcDbEntity
  8
0
370
              25
  6
Continuous
 62
               7
100
AcDbCircle
 10
162.17018715249998
 20
84.239208468159987
 30
0.0
 40
3.5492654763514024
100
AcDbArc
 50
211.07447299790019
 51
268.93919618459995
  0
LINE
  5
54D
100
AcDbEntity
  8
0
370
              25
  6
Continuous
 62
               7
100
AcDbLine
 10
163.05464604651999
 20
80.606196160919993
 30
0.0
 11
162.3509340478
 21
80.657782229959992
 31
0.0
  0
ARC
  5
54E
100
AcDbEntity
  8
0
370
              25
  6
Continuous
 62
               7
100
AcDbCircle
 10
164.56970056783999
 20
88.136610429499996
 30
0.0
 40
5.3275937999848582
100
AcDbArc
 50
287.0230660648001
 51
304.14380583269997
  0
LINE
  5
54F
100
AcDbEntity
  8
0
370
              25
  6
Continuous
 62
               7
100
AcDbLine
 10
162.56924804347997
 20
79.126275013579999
 30
0.0
 11
162.56924804347997
 21
77.827236897920002
 31
0.0
  0
SPLINE
  5
550
100
AcDbEntity
  8
0
370
              25
  6
Continuous
 62
               7
100
AcDbSpline
210
0.0
220
0.0
230
1.0
 70
               8
 71
               2
 72
              13
 73
              10
 74
               0
 42
0.000001
 43
0.000001
 40
0.0
 40
0.0
 40
0.0
 40
1.0
 40
1.0
 40
2.0
 40
3.0
 40
4.0
 40
5.0
 40
5.0
 40
6.0
 40
6.0
 40
6.0
 10
164.76232410230236
 20
79.891107026488669
 30
0.0
 10
164.75777190329234
 20
79.890004954550676
 30
0.0
 10
164.75321970428232
 20
79.888902882612683
 30
0.0
 10
164.45245015345023
 20
79.81719209018442
 30
0.0
 10
163.87303685982323
 20
79.665791371344099
 30
0.0
 10
163.21217756017808
 20
79.447684876828461
 30
0.0
 10
162.71280329814383
 20
79.200640356628455
 30
0.0
 10
162.5717250427472
 20
79.127551138899733
 30
0.0
 10
162.57048654303657
 20
79.126913076655157
 30
0.0
 10
162.56924804332593
 20
79.126275014410581
 30
0.0
  0
LINE
  5
551
100
AcDbEntity
  8
0
370
              25
  6
Continuous
 62
               7
100
AcDbLine
 10
166.95540016016
 20
79.789913493260002
 30
0.0
 11
164.76232410182001
 21
79.891107027219988
 31
0.0
  0
LINE
  5
552
100
AcDbEntity
  8
0
370
              25
  6
Continuous
 62
               7
100
AcDbLine
 10
166.95540016016
 20
79.789913493260002
 30
0.0
 11
166.95540016016
 21
78.490875375059986
 31
0.0
  0
LINE
  5
553
100
AcDbEntity
  8
0
370
              25
  6
Continuous
 62
               7
100
AcDbLine
 10
162.56924804347997
 20
77.827236897920002
 30
0.0
 11
166.95540016016
 21
78.490875375059986
 31
0.0
  0
ARC
  5
554
100
AcDbEntity
  8
0
370
              25
  6
Continuous
 62
               7
100
AcDbCircle
 10
166.79529820959999
 20
82.283756468479993
 30
0.0
 40
1.4996601595089143
100
AcDbArc
 50
337.69617472060008
 51
51.415661050900212
  0
ARC
  5
555
100
AcDbEntity
  8
0
370
              25
  6
Continuous
 62
               7
100
AcDbCircle
 10
164.58414902001999
 20
84.345014761499996
 30
0.0
 40
4.4574701881064751
100
AcDbArc
 50
272.29085114610012
 51
323.83505046189993
  0
ARC
  5
556
100
AcDbEntity
  8
0
370
              25
  6
Continuous
 62
               7
100
AcDbCircle
 10
163.31836809717998
 20
88.644556444339997
 30
0.0
 40
8.8717464816089144
100
AcDbArc
 50
247.29302457550006
 51
279.36707108639996
  0
POLYLINE
  5
557
100
AcDbEntity
  8
0
370
              25
  6
Continuous
 62
               7
100
AcDb2dPolyline
 66
               1
 10
0.0
 20
0.0
 30
0.0
 75
               5
  0
VERTEX
  5
558
100
AcDbEntity
  8
0
370
              25
  6
Continuous
 62
               7
100
AcDbVertex
100
AcDb2dVertex
 10
159.89371113141999
 20
80.460449264199994
 30
0.0
  0
VERTEX
  5
559
100
AcDbEntity
  8
0
370
              25
  6
Continuous
 62
               7
100
AcDbVertex
100
AcDb2dVertex
 10
159.44694455225999
 20
80.699278095659992
 30
0.0
  0
VERTEX
  5
55A
100
AcDbEntity
  8
0
370
              25
  6
Continuous
 62
               7
100
AcDbVertex
100
AcDb2dVertex
 10
159.06634582146
 20
80.965220096159996
 30
0.0
  0
VERTEX
  5
55B
100
AcDbEntity
  8
0
370
              25
  6
Continuous
 62
               7
100
AcDbVertex
100
AcDb2dVertex
 10
158.75842991456
 20
81.253727565879998
 30
0.0
  0
VERTEX
  5
55C
100
AcDbEntity
  8
0
370
              25
  6
Continuous
 62
               7
100
AcDbVertex
100
AcDb2dVertex
 10
158.52846172323999
 20
81.559860893160007
 30
0.0
  0
VERTEX
  5
55D
100
AcDbEntity
  8
0
370
              25
  6
Continuous
 62
               7
100
AcDbVertex
100
AcDb2dVertex
 10
158.38037864627998
 20
81.878384033099991
 30
0.0
  0
VERTEX
  5
55E
100
AcDbEntity
  8
0
370
              25
  6
Continuous
 62
               7
100
AcDbVertex
100
AcDb2dVertex
 10
158.31671378503998
 20
82.203846889919987
 30
0.0
  0
VERTEX
  5
55F
100
AcDbEntity
  8
0
370
              25
  6
Continuous
 62
               7
100
AcDbVertex
100
AcDb2dVertex
 10
158.33855670046
 20
82.530680536480006
 30
0.0
  0
VERTEX
  5
560
100
AcDbEntity
  8
0
370
              25
  6
Continuous
 62
               7
100
AcDbVertex
100
AcDb2dVertex
 10
158.44553236408001
 20
82.853291471139997
 30
0.0
  0
SEQEND
  5
561
100
AcDbEntity
  8
0
370
              25
  6
Continuous
 62
               7
  0
POLYLINE
  5
562
100
AcDbEntity
  8
0
370
              25
  6
Continuous
 62
               7
100
AcDb2dPolyline
 66
               1
 10
0.0
 20
0.0
 30
0.0
 75
               5
  0
VERTEX
  5
563
100
AcDbEntity
  8
0
370
              25
  6
Continuous
 62
               7
100
AcDbVertex
100
AcDb2dVertex
 10
158.44553236408001
 20
82.853291471139997
 30
0.0
  0
VERTEX
  5
564
100
AcDbEntity
  8
0
370
              25
  6
Continuous
 62
               7
100
AcDbVertex
100
AcDb2dVertex
 10
158.63581214862
 20
83.166161681060004
 30
0.0
  0
VERTEX
  5
565
100
AcDbEntity
  8
0
370
              25
  6
Continuous
 62
               7
100
AcDbVertex
100
AcDb2dVertex
 10
158.81797975228
 20
83.377623513659998
 30
0.0
  0
SEQEND
  5
566
100
AcDbEntity
  8
0
370
              25
  6
Continuous
 62
               7
  0
LINE
  5
567
100
AcDbEntity
  8
0
370
              25
  6
Continuous
 62
               7
100
AcDbLine
 10
161.56497792604
 20
79.243716838639997
 30
0.0
 11
159.89371113141999
 21
80.460449264199994
 31
0.0
  0
ARC
  5
568
100
AcDbEntity
  8
0
370
              25
  6
Continuous
 62
               7
100
AcDbCircle
 10
163.26709635059999
 20
89.446309981799999
 30
0.0
 40
10.343602562968059
100
AcDbArc
 50
260.52846440239995
 51
266.13150664559993
  0
SPLINE
  5
569
100
AcDbEntity
  8
0
370
              25
  6
Continuous
 62
               7
100
AcDbSpline
210
0.0
220
0.0
230
1.0
 70
               8
 71
               2
 72
              13
 73
              10
 74
               0
 42
0.000001
 43
0.000001
 40
0.0
 40
0.0
 40
0.0
 40
1.0
 40
1.0
 40
2.0
 40
3.0
 40
4.0
 40
5.0
 40
5.0
 40
6.0
 40
6.0
 40
6.0
 10
168.18276036862912
 20
81.714608549485192
 30
0.0
 10
168.18179758268121
 20
81.712182902956386
 30
0.0
 10
168.18083479673328
 20
81.709757256427594
 30
0.0
 10
168.09401940461566
 20
81.493389982658414
 30
0.0
 10
167.94896465019784
 20
81.109500874970408
 30
0.0
 10
167.80527018074466
 20
80.687187590655469
 30
0.0
 10
167.69340695986838
 20
80.285452055816478
 30
0.0
 10
167.66147477454692
 20
80.16797809464407
 30
0.0
 10
167.66121283809588
 20
80.167017518163306
 30
0.0
 10
167.66095090164484
 20
80.166056941682541
 30
0.0
  0
ARC
  5
56A
100
AcDbEntity
  8
0
370
              25
  6
Continuous
 62
               7
100
AcDbCircle
 10
164.90819308109999
 20
84.479750168940001
 30
0.0
 40
5.1171891569807935
100
AcDbArc
 50
293.58222734169988
 51
302.54374245460002
  0
ARC
  5
56B
100
AcDbEntity
  8
0
370
              25
  6
Continuous
 62
               7
100
AcDbCircle
 10
163.72891288442
 20
85.390242602459992
 30
0.0
 40
5.0000082615814163
100
AcDbArc
 50
265.28483498409997
 51
313.5750090391
  0
ARC
  5
56C
100
AcDbEntity
  8
0
370
              25
  6
Continuous
 62
               7
100
AcDbCircle
 10
162.31750780273998
 20
84.1175683787
 30
0.0
 40
3.6570856549988107
100
AcDbArc
 50
214.0844964769
 51
270.98580882970015
  0
LINE
  5
56D
100
AcDbEntity
  8
0
370
              25
  6
Continuous
 62
               7
100
AcDbLine
 10
158.2224444384
 20
80.811156116760003
 30
0.0
 11
158.2224444384
 21
79.512118001099992
 31
0.0
  0
SPLINE
  5
56E
100
AcDbEntity
  8
0
370
              25
  6
Continuous
 62
               7
100
AcDbSpline
210
0.0
220
0.0
230
1.0
 70
               8
 71
               2
 72
              14
 73
              11
 74
               0
 42
0.000001
 43
0.000001
 40
0.0
 40
0.0
 40
0.0
 40
1.0
 40
1.0
 40
2.0
 40
3.0
 40
4.0
 40
5.0
 40
6.0
 40
6.0
 40
7.0
 40
7.0
 40
7.0
 10
159.89371113172336
 20
80.460449265050954
 30
0.0
 10
159.8905693296164
 20
80.461548253745718
 30
0.0
 10
159.88742752750943
 20
80.462647242440497
 30
0.0
 10
159.71766535964892
 20
80.522497753681407
 30
0.0
 10
159.35425293032728
 20
80.644986675888958
 30
0.0
 10
158.95886279935175
 20
80.753089160501091
 30
0.0
 10
158.59995220538647
 20
80.807930143301547
 30
0.0
 10
158.3317637619769
 20
80.812536433054689
 30
0.0
 10
158.22415399179692
 20
80.811170754837079
 30
0.0
 10
158.22329921535479
 20
80.811163435923902
 30
0.0
 10
158.22244443891265
 20
80.811156117010739
 30
0.0
  0
LINE
  5
56F
100
AcDbEntity
  8
0
370
              25
  6
Continuous
 62
               7
100
AcDbLine
 10
161.56497792604
 20
79.243716838639997
 30
0.0
 11
161.56497792604
 21
77.944678720439995
 31
0.0
  0
LINE
  5
570
100
AcDbEntity
  8
0
370
              25
  6
Continuous
 62
               7
100
AcDbLine
 10
158.2224444384
 20
79.512118001099992
 30
0.0
 11
161.56497792604
 21
77.944678720439995
 31
0.0
  0
ARC
  5
571
100
AcDbEntity
  8
0
370
              25
  6
Continuous
 62
               7
100
AcDbCircle
 10
163.26709635059999
 20
88.147271863599997
 30
0.0
 40
10.343602562964934
100
AcDbArc
 50
260.52846440239995
 51
266.13150664559981
  0
ARC
  5
572
100
AcDbEntity
  8
0
370
              25
  6
Continuous
 62
               7
100
AcDbCircle
 10
162.41221060037998
 20
82.302246276559998
 30
0.0
 40
1.592155535985692
100
AcDbArc
 50
235.22976846509971
 51
265.57365639960017
  0
ARC
  5
573
100
AcDbEntity
  8
0
370
              25
  6
Continuous
 62
               7
100
AcDbCircle
 10
162.41221060037998
 20
82.248746266719991
 30
0.0
 40
1.592155535985692
100
AcDbArc
 50
235.22976846509971
 51
265.57365639960022
  0
LINE
  5
574
100
AcDbEntity
  8
0
370
              25
  6
Continuous
 62
               7
100
AcDbLine
 10
167.66095090044001
 20
80.166056942139988
 30
0.0
 11
167.66095090044001
 21
78.867018823940001
 31
0.0
  0
ARC
  5
575
100
AcDbEntity
  8
0
370
              25
  6
Continuous
 62
               7
100
AcDbCircle
 10
164.90819308109999
 20
83.180712050739999
 30
0.0
 40
5.1171891569806913
100
AcDbArc
 50
293.58222734170005
 51
302.54374245460002
  0
LINE
  5
576
100
AcDbEntity
  8
0
370
              25
  6
Continuous
 62
               7
100
AcDbLine
 10
157.92372329847998
 20
81.304739747319999
 30
0.0
 11
158.44553236408001
 21
82.853291471139997
 31
0.0
  0
ARC
  5
577
100
AcDbEntity
  8
0
370
              25
  6
Continuous
 62
               7
100
AcDbCircle
 10
159.70700521324
 20
82.04681145088
 30
0.0
 40
1.9315187797107143
100
AcDbArc
 50
202.59351198049987
 51
219.77187544109995
  0
LINE
  5
578
100
AcDbEntity
  8
0
370
              25
  6
Continuous
 62
               7
100
AcDbLine
 10
168.70456943295997
 20
82.397134727879987
 30
0.0
 11
168.18276036735998
 21
81.714608549119987
 31
0.0
  0
LINE
  5
579
100
AcDbEntity
  8
0
370
              25
  6
Continuous
 62
               7
100
AcDbLine
 10
168.70456943295997
 20
82.397134727879987
 30
0.0
 11
168.70456943295997
 21
81.09809661221999
 31
0.0
  0
LINE
  5
57A
100
AcDbEntity
  8
0
370
              25
  6
Continuous
 62
               7
100
AcDbLine
 10
167.66095090044001
 20
78.867018823940001
 30
0.0
 11
168.70456943295997
 21
81.09809661221999
 31
0.0
  0
LINE
  5
57B
100
AcDbEntity
  8
0
370
              25
  6
Continuous
 62
               7
100
AcDbLine
 10
157.92372329847998
 20
81.304739747319999
 30
0.0
 11
157.92372329847998
 21
80.005701631660003
 31
0.0
  0
ARC
  5
57C
100
AcDbEntity
  8
0
370
              25
  6
Continuous
 62
               7
100
AcDbCircle
 10
159.70700521324
 20
80.747773332679998
 30
0.0
 40
1.9315187797105033
100
AcDbArc
 50
202.59351198050012
 51
219.77187544109992
  0
SPLINE
  5
57D
100
AcDbEntity
  8
0
370
              25
  6
Continuous
 62
               7
100
AcDbSpline
210
0.0
220
0.0
230
1.0
 70
               8
 71
               2
 72
              13
 73
              10
 74
               0
 42
0.000001
 43
0.000001
 40
0.0
 40
0.0
 40
0.0
 40
1.0
 40
1.0
 40
2.0
 40
3.0
 40
4.0
 40
5.0
 40
5.0
 40
6.0
 40
6.0
 40
6.0
 10
167.67760217047589
 20
83.470713280826828
 30
0.0
 10
167.67831002156672
 20
83.470274420185845
 30
0.0
 10
167.67901787265754
 20
83.469835559544862
 30
0.0
 10
167.76835137523952
 20
83.415098814189122
 30
0.0
 10
168.00183207396128
 20
83.263717557184464
 30
0.0
 10
168.18630958678779
 20
83.101897170083063
 30
0.0
 10
168.31743213429306
 20
82.978241293465331
 30
0.0
 10
168.40446502704597
 20
82.892079063049664
 30
0.0
 10
168.40515665997566
 20
82.89139871075318
 30
0.0
 10
168.40584829290532
 20
82.890718358456681
 30
0.0
  0
ARC
  5
57E
100
AcDbEntity
  8
0
370
              25
  6
Continuous
 62
               7
100
AcDbCircle
 10
166.92128751819999
 20
81.655063024319986
 30
0.0
 40
1.9315187797082547
100
AcDbArc
 50
22.593511980500057
 51
39.771875441099908
  0
SPLINE
  5
57F
100
AcDbEntity
  8
0
370
              25
  6
Continuous
 62
               7
100
AcDbSpline
210
0.0
220
0.0
230
1.0
 70
               8
 71
               2
 72
              14
 73
              11
 74
               0
 42
0.000001
 43
0.000001
 40
0.0
 40
0.0
 40
0.0
 40
1.0
 40
1.0
 40
2.0
 40
3.0
 40
4.0
 40
5.0
 40
6.0
 40
6.0
 40
7.0
 40
7.0
 40
7.0
 10
158.44553236318882
 20
82.853291471719317
 30
0.0
 10
158.44628820071648
 20
82.854652565269177
 30
0.0
 10
158.44704403824417
 20
82.856013658819037
 30
0.0
 10
158.51818152845541
 20
82.985382248275954
 30
0.0
 10
158.63529736028212
 20
83.184945590917394
 30
0.0
 10
158.72999229192393
 20
83.326199876611838
 30
0.0
 10
158.81717938175822
 20
83.42801855493876
 30
0.0
 10
158.87690097653956
 20
83.473466860438393
 30
0.0
 10
158.89684837848068
 20
83.486353162640995
 30
0.0
 10
158.89692698511971
 20
83.486405077718302
 30
0.0
 10
158.89700559175873
 20
83.486456992795596
 30
0.0
  0
LINE
  5
580
100
AcDbEntity
  8
0
370
              25
  6
Continuous
 62
               7
100
AcDbLine
 10
169.56414692385999
 20
85.964558377879996
 30
0.0
 11
168.70457114491998
 21
86.207799166480001
 31
0.0
  0
ARC
  5
581
100
AcDbEntity
  8
0
370
              25
  6
Continuous
 62
               7
100
AcDbCircle
 10
140.93859925254
 20
-18.730574212640008
 30
0.0
 40
108.58133410723541
100
AcDbArc
 50
81.000395818599983
 51
106.25837411089996
  0
POLYLINE
  5
582
100
AcDbEntity
  8
0
370
              25
  6
Continuous
 62
               7
100
AcDb2dPolyline
 66
               1
 10
0.0
 20
0.0
 30
0.0
 75
               5
  0
VERTEX
  5
583
100
AcDbEntity
  8
0
370
              25
  6
Continuous
 62
               7
100
AcDbVertex
100
AcDb2dVertex
 10
95.245682505459996
 20
78.600332151319989
 30
0.0
  0
VERTEX
  5
584
100
AcDbEntity
  8
0
370
              25
  6
Continuous
 62
               7
100
AcDbVertex
100
AcDb2dVertex
 10
93.42688931552
 20
77.350507119859998
 30
0.0
  0
VERTEX
  5
585
100
AcDbEntity
  8
0
370
              25
  6
Continuous
 62
               7
100
AcDbVertex
100
AcDb2dVertex
 10
91.01768478164
 20
75.44132782925999
 30
0.0
  0
VERTEX
  5
586
100
AcDbEntity
  8
0
370
              25
  6
Continuous
 62
               7
100
AcDbVertex
100
AcDb2dVertex
 10
88.915491515879992
 20
73.443522020459994
 30
0.0
  0
VERTEX
  5
587
100
AcDbEntity
  8
0
370
              25
  6
Continuous
 62
               7
100
AcDbVertex
100
AcDb2dVertex
 10
87.133271216979992
 20
71.369406361739991
 30
0.0
  0
VERTEX
  5
588
100
AcDbEntity
  8
0
370
              25
  6
Continuous
 62
               7
100
AcDbVertex
100
AcDb2dVertex
 10
85.682012808859994
 20
69.231768351019994
 30
0.0
  0
VERTEX
  5
589
100
AcDbEntity
  8
0
370
              25
  6
Continuous
 62
               7
100
AcDbVertex
100
AcDb2dVertex
 10
84.570659435939987
 20
67.043788170219997
 30
0.0
  0
VERTEX
  5
58A
100
AcDbEntity
  8
0
370
              25
  6
Continuous
 62
               7
100
AcDbVertex
100
AcDb2dVertex
 10
83.80606820413999
 20
64.818955416439991
 30
0.0
  0
VERTEX
  5
58B
100
AcDbEntity
  8
0
370
              25
  6
Continuous
 62
               7
100
AcDbVertex
100
AcDb2dVertex
 10
83.392948695099989
 20
62.57098602872
 30
0.0
  0
VERTEX
  5
58C
100
AcDbEntity
  8
0
370
              25
  6
Continuous
 62
               7
100
AcDbVertex
100
AcDb2dVertex
 10
83.333850202679997
 20
60.313740474639992
 30
0.0
  0
VERTEX
  5
58D
100
AcDbEntity
  8
0
370
              25
  6
Continuous
 62
               7
100
AcDbVertex
100
AcDb2dVertex
 10
83.629136475199999
 20
58.061134796979999
 30
0.0
  0
VERTEX
  5
58E
100
AcDbEntity
  8
0
370
              25
  6
Continuous
 62
               7
100
AcDbVertex
100
AcDb2dVertex
 10
84.276987252139989
 20
55.827056288260003
 30
0.0
  0
VERTEX
  5
58F
100
AcDbEntity
  8
0
370
              25
  6
Continuous
 62
               7
100
AcDbVertex
100
AcDb2dVertex
 10
85.273409084540006
 20
53.625279711380003
 30
0.0
  0
VERTEX
  5
590
100
AcDbEntity
  8
0
370
              25
  6
Continuous
 62
               7
100
AcDbVertex
100
AcDb2dVertex
 10
86.612259040819993
 20
51.469379806780005
 30
0.0
  0
VERTEX
  5
591
100
AcDbEntity
  8
0
370
              25
  6
Continuous
 62
               7
100
AcDbVertex
100
AcDb2dVertex
 10
88.285282319099991
 20
49.372648369059995
 30
0.0
  0
VERTEX
  5
592
100
AcDbEntity
  8
0
370
              25
  6
Continuous
 62
               7
100
AcDbVertex
100
AcDb2dVertex
 10
90.282162584919988
 20
47.348013058420001
 30
0.0
  0
VERTEX
  5
593
100
AcDbEntity
  8
0
370
              25
  6
Continuous
 62
               7
100
AcDbVertex
100
AcDb2dVertex
 10
92.590588933259994
 20
45.40795568886
 30
0.0
  0
VERTEX
  5
594
100
AcDbEntity
  8
0
370
              25
  6
Continuous
 62
               7
100
AcDbVertex
100
AcDb2dVertex
 10
95.196330310539992
 20
43.564436970519999
 30
0.0
  0
VERTEX
  5
595
100
AcDbEntity
  8
0
370
              25
  6
Continuous
 62
               7
100
AcDbVertex
100
AcDb2dVertex
 10
98.083318493879986
 20
41.82882309352
 30
0.0
  0
VERTEX
  5
596
100
AcDbEntity
  8
0
370
              25
  6
Continuous
 62
               7
100
AcDbVertex
100
AcDb2dVertex
 10
101.23375892908
 20
40.211815019439996
 30
0.0
  0
VERTEX
  5
597
100
AcDbEntity
  8
0
370
              25
  6
Continuous
 62
               7
100
AcDbVertex
100
AcDb2dVertex
 10
104.62822359047999
 20
38.723380797939996
 30
0.0
  0
VERTEX
  5
598
100
AcDbEntity
  8
0
370
              25
  6
Continuous
 62
               7
100
AcDbVertex
100
AcDb2dVertex
 10
108.24578730022
 20
37.372699023820005
 30
0.0
  0
VERTEX
  5
599
100
AcDbEntity
  8
0
370
              25
  6
Continuous
 62
               7
100
AcDbVertex
100
AcDb2dVertex
 10
112.06414588141999
 20
36.16809675687999
 30
0.0
  0
VERTEX
  5
59A
100
AcDbEntity
  8
0
370
              25
  6
Continuous
 62
               7
100
AcDbVertex
100
AcDb2dVertex
 10
116.05975749901999
 20
35.117000124
 30
0.0
  0
VERTEX
  5
59B
100
AcDbEntity
  8
0
370
              25
  6
Continuous
 62
               7
100
AcDbVertex
100
AcDb2dVertex
 10
120.20798881392
 20
34.22588997582001
 30
0.0
  0
VERTEX
  5
59C
100
AcDbEntity
  8
0
370
              25
  6
Continuous
 62
               7
100
AcDbVertex
100
AcDb2dVertex
 10
124.48326483789999
 20
33.500260771759997
 30
0.0
  0
VERTEX
  5
59D
100
AcDbEntity
  8
0
370
              25
  6
Continuous
 62
               7
100
AcDbVertex
100
AcDb2dVertex
 10
128.8592251995
 20
32.944584082759988
 30
0.0
  0
VERTEX
  5
59E
100
AcDbEntity
  8
0
370
              25
  6
Continuous
 62
               7
100
AcDbVertex
100
AcDb2dVertex
 10
133.30889070452
 20
32.562288469400002
 30
0.0
  0
VERTEX
  5
59F
100
AcDbEntity
  8
0
370
              25
  6
Continuous
 62
               7
100
AcDbVertex
100
AcDb2dVertex
 10
137.80482947995998
 20
32.355728712339996
 30
0.0
  0
VERTEX
  5
5A0
100
AcDbEntity
  8
0
370
              25
  6
Continuous
 62
               7
100
AcDbVertex
100
AcDb2dVertex
 10
142.31932059066
 20
32.326179467399996
 30
0.0
  0
VERTEX
  5
5A1
100
AcDbEntity
  8
0
370
              25
  6
Continuous
 62
               7
100
AcDbVertex
100
AcDb2dVertex
 10
146.82453194343998
 20
32.473822603659997
 30
0.0
  0
VERTEX
  5
5A2
100
AcDbEntity
  8
0
370
              25
  6
Continuous
 62
               7
100
AcDbVertex
100
AcDb2dVertex
 10
151.29268896342001
 20
32.797747993399994
 30
0.0
  0
VERTEX
  5
5A3
100
AcDbEntity
  8
0
370
              25
  6
Continuous
 62
               7
100
AcDbVertex
100
AcDb2dVertex
 10
155.69624211464
 20
33.295958909600003
 30
0.0
  0
VERTEX
  5
5A4
100
AcDbEntity
  8
0
370
              25
  6
Continuous
 62
               7
100
AcDbVertex
100
AcDb2dVertex
 10
160.00804192891999
 20
33.965383887740003
 30
0.0
  0
VERTEX
  5
5A5
100
AcDbEntity
  8
0
370
              25
  6
Continuous
 62
               7
100
AcDbVertex
100
AcDb2dVertex
 10
164.20150480181999
 20
34.801895526879989
 30
0.0
  0
VERTEX
  5
5A6
100
AcDbEntity
  8
0
370
              25
  6
Continuous
 62
               7
100
AcDbVertex
100
AcDb2dVertex
 10
168.25077542055999
 20
35.800335658519998
 30
0.0
  0
VERTEX
  5
5A7
100
AcDbEntity
  8
0
370
              25
  6
Continuous
 62
               7
100
AcDbVertex
100
AcDb2dVertex
 10
172.13089016222
 20
36.954548833960004
 30
0.0
  0
VERTEX
  5
5A8
100
AcDbEntity
  8
0
370
              25
  6
Continuous
 62
               7
100
AcDbVertex
100
AcDb2dVertex
 10
175.81792759889998
 20
38.257419522599989
 30
0.0
  0
VERTEX
  5
5A9
100
AcDbEntity
  8
0
370
              25
  6
Continuous
 62
               7
100
AcDbVertex
100
AcDb2dVertex
 10
179.28915535035998
 20
39.700913612999997
 30
0.0
  0
VERTEX
  5
5AA
100
AcDbEntity
  8
0
370
              25
  6
Continuous
 62
               7
100
AcDbVertex
100
AcDb2dVertex
 10
182.52317150106001
 20
41.276133830599989
 30
0.0
  0
VERTEX
  5
5AB
100
AcDbEntity
  8
0
370
              25
  6
Continuous
 62
               7
100
AcDbVertex
100
AcDb2dVertex
 10
185.50003994151999
 20
42.9733661613
 30
0.0
  0
VERTEX
  5
5AC
100
AcDbEntity
  8
0
370
              25
  6
Continuous
 62
               7
100
AcDbVertex
100
AcDb2dVertex
 10
188.20140349229999
 20
44.782148017439994
 30
0.0
  0
VERTEX
  5
5AD
100
AcDbEntity
  8
0
370
              25
  6
Continuous
 62
               7
100
AcDbVertex
100
AcDb2dVertex
 10
190.61060802364
 20
46.691327308039995
 30
0.0
  0
VERTEX
  5
5AE
100
AcDbEntity
  8
0
370
              25
  6
Continuous
 62
               7
100
AcDbVertex
100
AcDb2dVertex
 10
192.71280128940001
 20
48.689133116839997
 30
0.0
  0
VERTEX
  5
5AF
100
AcDbEntity
  8
0
370
              25
  6
Continuous
 62
               7
100
AcDbVertex
100
AcDb2dVertex
 10
194.49502158829998
 20
50.763248773019995
 30
0.0
  0
VERTEX
  5
5B0
100
AcDbEntity
  8
0
370
              25
  6
Continuous
 62
               7
100
AcDbVertex
100
AcDb2dVertex
 10
195.94627999641997
 20
52.900886786279997
 30
0.0
  0
VERTEX
  5
5B1
100
AcDbEntity
  8
0
370
              25
  6
Continuous
 62
               7
100
AcDbVertex
100
AcDb2dVertex
 10
197.05763337187997
 20
55.088866967080001
 30
0.0
  0
VERTEX
  5
5B2
100
AcDbEntity
  8
0
370
              25
  6
Continuous
 62
               7
100
AcDbVertex
100
AcDb2dVertex
 10
197.82222460113999
 20
57.313699718319988
 30
0.0
  0
VERTEX
  5
5B3
100
AcDbEntity
  8
0
370
              25
  6
Continuous
 62
               7
100
AcDbVertex
100
AcDb2dVertex
 10
198.23534411271999
 20
59.56166910604
 30
0.0
  0
VERTEX
  5
5B4
100
AcDbEntity
  8
0
370
              25
  6
Continuous
 62
               7
100
AcDbVertex
100
AcDb2dVertex
 10
198.29444260259999
 20
61.818914660120001
 30
0.0
  0
VERTEX
  5
5B5
100
AcDbEntity
  8
0
370
              25
  6
Continuous
 62
               7
100
AcDbVertex
100
AcDb2dVertex
 10
197.99915633007998
 20
64.071520337780001
 30
0.0
  0
VERTEX
  5
5B6
100
AcDbEntity
  8
0
370
              25
  6
Continuous
 62
               7
100
AcDbVertex
100
AcDb2dVertex
 10
197.35130555313998
 20
66.30559884649999
 30
0.0
  0
VERTEX
  5
5B7
100
AcDbEntity
  8
0
370
              25
  6
Continuous
 62
               7
100
AcDbVertex
100
AcDb2dVertex
 10
196.35488372073999
 20
68.507375423379997
 30
0.0
  0
VERTEX
  5
5B8
100
AcDbEntity
  8
0
370
              25
  6
Continuous
 62
               7
100
AcDbVertex
100
AcDb2dVertex
 10
195.01603376445999
 20
70.663275330519994
 30
0.0
  0
VERTEX
  5
5B9
100
AcDbEntity
  8
0
370
              25
  6
Continuous
 62
               7
100
AcDbVertex
100
AcDb2dVertex
 10
193.34301048617999
 20
72.76000676823999
 30
0.0
  0
VERTEX
  5
5BA
100
AcDbEntity
  8
0
370
              25
  6
Continuous
 62
               7
100
AcDbVertex
100
AcDb2dVertex
 10
191.3461302229
 20
74.784642076339992
 30
0.0
  0
VERTEX
  5
5BB
100
AcDbEntity
  8
0
370
              25
  6
Continuous
 62
               7
100
AcDbVertex
100
AcDb2dVertex
 10
189.03770387456001
 20
76.724699445900001
 30
0.0
  0
VERTEX
  5
5BC
100
AcDbEntity
  8
0
370
              25
  6
Continuous
 62
               7
100
AcDbVertex
100
AcDb2dVertex
 10
186.43196249473999
 20
78.568218166779985
 30
0.0
  0
VERTEX
  5
5BD
100
AcDbEntity
  8
0
370
              25
  6
Continuous
 62
               7
100
AcDbVertex
100
AcDb2dVertex
 10
183.54497431393997
 20
80.30383204124
 30
0.0
  0
VERTEX
  5
5BE
100
AcDbEntity
  8
0
370
              25
  6
Continuous
 62
               7
100
AcDbVertex
100
AcDb2dVertex
 10
180.39453387873999
 20
81.920840117859996
 30
0.0
  0
VERTEX
  5
5BF
100
AcDbEntity
  8
0
370
              25
  6
Continuous
 62
               7
100
AcDbVertex
100
AcDb2dVertex
 10
179.82118834776
 20
82.189186789700003
 30
0.0
  0
SEQEND
  5
5C0
100
AcDbEntity
  8
0
370
              25
  6
Continuous
 62
               7
  0
LINE
  5
5C1
100
AcDbEntity
  8
0
370
              25
  6
Continuous
 62
               7
100
AcDbLine
 10
171.08913694728
 20
85.508478152119991
 30
0.0
 11
169.56414692385999
 21
85.964558377879996
 31
0.0
  0
POLYLINE
  5
5C2
100
AcDbEntity
  8
0
370
              25
  6
Continuous
 62
               7
100
AcDb2dPolyline
 66
               1
 10
0.0
 20
0.0
 30
0.0
 75
               5
  0
VERTEX
  5
5C3
100
AcDbEntity
  8
0
370
              25
  6
Continuous
 62
               7
100
AcDbVertex
100
AcDb2dVertex
 10
83.31414498174
 20
39.415693269040005
 30
0.0
  0
VERTEX
  5
5C4
100
AcDbEntity
  8
0
370
              25
  6
Continuous
 62
               7
100
AcDbVertex
100
AcDb2dVertex
 10
83.333850202679997
 20
38.663106064540003
 30
0.0
  0
VERTEX
  5
5C5
100
AcDbEntity
  8
0
370
              25
  6
Continuous
 62
               7
100
AcDbVertex
100
AcDb2dVertex
 10
83.629136475199999
 20
36.410500389419994
 30
0.0
  0
VERTEX
  5
5C6
100
AcDbEntity
  8
0
370
              25
  6
Continuous
 62
               7
100
AcDbVertex
100
AcDb2dVertex
 10
84.276987252139989
 20
34.176421878159999
 30
0.0
  0
VERTEX
  5
5C7
100
AcDbEntity
  8
0
370
              25
  6
Continuous
 62
               7
100
AcDbVertex
100
AcDb2dVertex
 10
85.273409084540006
 20
31.974645303819997
 30
0.0
  0
VERTEX
  5
5C8
100
AcDbEntity
  8
0
370
              25
  6
Continuous
 62
               7
100
AcDbVertex
100
AcDb2dVertex
 10
86.612259040819993
 20
29.818745396680001
 30
0.0
  0
VERTEX
  5
5C9
100
AcDbEntity
  8
0
370
              25
  6
Continuous
 62
               7
100
AcDbVertex
100
AcDb2dVertex
 10
88.285282319099991
 20
27.722013958960005
 30
0.0
  0
VERTEX
  5
5CA
100
AcDbEntity
  8
0
370
              25
  6
Continuous
 62
               7
100
AcDbVertex
100
AcDb2dVertex
 10
90.282162584919988
 20
25.697378650860003
 30
0.0
  0
VERTEX
  5
5CB
100
AcDbEntity
  8
0
370
              25
  6
Continuous
 62
               7
100
AcDbVertex
100
AcDb2dVertex
 10
92.590588933259994
 20
23.757321278760003
 30
0.0
  0
VERTEX
  5
5CC
100
AcDbEntity
  8
0
370
              25
  6
Continuous
 62
               7
100
AcDbVertex
100
AcDb2dVertex
 10
95.196330310539992
 20
21.913802560419995
 30
0.0
  0
VERTEX
  5
5CD
100
AcDbEntity
  8
0
370
              25
  6
Continuous
 62
               7
100
AcDbVertex
100
AcDb2dVertex
 10
98.083318493879986
 20
20.178188685959995
 30
0.0
  0
VERTEX
  5
5CE
100
AcDbEntity
  8
0
370
              25
  6
Continuous
 62
               7
100
AcDbVertex
100
AcDb2dVertex
 10
101.23375892908
 20
18.561180609339999
 30
0.0
  0
VERTEX
  5
5CF
100
AcDbEntity
  8
0
370
              25
  6
Continuous
 62
               7
100
AcDbVertex
100
AcDb2dVertex
 10
104.62822359047999
 20
17.072746390380004
 30
0.0
  0
VERTEX
  5
5D0
100
AcDbEntity
  8
0
370
              25
  6
Continuous
 62
               7
100
AcDbVertex
100
AcDb2dVertex
 10
108.24578730022
 20
15.722064613720008
 30
0.0
  0
VERTEX
  5
5D1
100
AcDbEntity
  8
0
370
              25
  6
Continuous
 62
               7
100
AcDbVertex
100
AcDb2dVertex
 10
112.06414588141999
 20
14.517462349319999
 30
0.0
  0
VERTEX
  5
5D2
100
AcDbEntity
  8
0
370
              25
  6
Continuous
 62
               7
100
AcDbVertex
100
AcDb2dVertex
 10
116.05975749901999
 20
13.466365716439995
 30
0.0
  0
VERTEX
  5
5D3
100
AcDbEntity
  8
0
370
              25
  6
Continuous
 62
               7
100
AcDbVertex
100
AcDb2dVertex
 10
120.20798881392
 20
12.575255565719999
 30
0.0
  0
VERTEX
  5
5D4
100
AcDbEntity
  8
0
370
              25
  6
Continuous
 62
               7
100
AcDbVertex
100
AcDb2dVertex
 10
124.48326483789999
 20
11.84962636166
 30
0.0
  0
VERTEX
  5
5D5
100
AcDbEntity
  8
0
370
              25
  6
Continuous
 62
               7
100
AcDbVertex
100
AcDb2dVertex
 10
128.8592251995
 20
11.293949675199997
 30
0.0
  0
VERTEX
  5
5D6
100
AcDbEntity
  8
0
370
              25
  6
Continuous
 62
               7
100
AcDbVertex
100
AcDb2dVertex
 10
133.30889070452
 20
10.911654059300005
 30
0.0
  0
VERTEX
  5
5D7
100
AcDbEntity
  8
0
370
              25
  6
Continuous
 62
               7
100
AcDbVertex
100
AcDb2dVertex
 10
137.80482947995998
 20
10.705094304780005
 30
0.0
  0
VERTEX
  5
5D8
100
AcDbEntity
  8
0
370
              25
  6
Continuous
 62
               7
100
AcDbVertex
100
AcDb2dVertex
 10
142.31932059066
 20
10.675545059840005
 30
0.0
  0
VERTEX
  5
5D9
100
AcDbEntity
  8
0
370
              25
  6
Continuous
 62
               7
100
AcDbVertex
100
AcDb2dVertex
 10
146.82453194343998
 20
10.823188196100006
 30
0.0
  0
VERTEX
  5
5DA
100
AcDbEntity
  8
0
370
              25
  6
Continuous
 62
               7
100
AcDbVertex
100
AcDb2dVertex
 10
151.29268896342001
 20
11.147113583299998
 30
0.0
  0
VERTEX
  5
5DB
100
AcDbEntity
  8
0
370
              25
  6
Continuous
 62
               7
100
AcDbVertex
100
AcDb2dVertex
 10
155.69624211464
 20
11.645324499500006
 30
0.0
  0
VERTEX
  5
5DC
100
AcDbEntity
  8
0
370
              25
  6
Continuous
 62
               7
100
AcDbVertex
100
AcDb2dVertex
 10
160.00804192891999
 20
12.314749477640007
 30
0.0
  0
VERTEX
  5
5DD
100
AcDbEntity
  8
0
370
              25
  6
Continuous
 62
               7
100
AcDbVertex
100
AcDb2dVertex
 10
164.20150480181999
 20
13.151261116779992
 30
0.0
  0
VERTEX
  5
5DE
100
AcDbEntity
  8
0
370
              25
  6
Continuous
 62
               7
100
AcDbVertex
100
AcDb2dVertex
 10
168.25077542055999
 20
14.149701248420001
 30
0.0
  0
VERTEX
  5
5DF
100
AcDbEntity
  8
0
370
              25
  6
Continuous
 62
               7
100
AcDbVertex
100
AcDb2dVertex
 10
172.13089016222
 20
15.303914423859993
 30
0.0
  0
VERTEX
  5
5E0
100
AcDbEntity
  8
0
370
              25
  6
Continuous
 62
               7
100
AcDbVertex
100
AcDb2dVertex
 10
175.81792759889998
 20
16.606785112499992
 30
0.0
  0
VERTEX
  5
5E1
100
AcDbEntity
  8
0
370
              25
  6
Continuous
 62
               7
100
AcDbVertex
100
AcDb2dVertex
 10
179.28915535035998
 20
18.050279202900001
 30
0.0
  0
VERTEX
  5
5E2
100
AcDbEntity
  8
0
370
              25
  6
Continuous
 62
               7
100
AcDbVertex
100
AcDb2dVertex
 10
182.52317150106001
 20
19.625499420499992
 30
0.0
  0
VERTEX
  5
5E3
100
AcDbEntity
  8
0
370
              25
  6
Continuous
 62
               7
100
AcDbVertex
100
AcDb2dVertex
 10
185.50003994151999
 20
21.322731751199996
 30
0.0
  0
VERTEX
  5
5E4
100
AcDbEntity
  8
0
370
              25
  6
Continuous
 62
               7
100
AcDbVertex
100
AcDb2dVertex
 10
188.20140349229999
 20
23.131513607339997
 30
0.0
  0
VERTEX
  5
5E5
100
AcDbEntity
  8
0
370
              25
  6
Continuous
 62
               7
100
AcDbVertex
100
AcDb2dVertex
 10
190.61060802364
 20
25.040692897939991
 30
0.0
  0
VERTEX
  5
5E6
100
AcDbEntity
  8
0
370
              25
  6
Continuous
 62
               7
100
AcDbVertex
100
AcDb2dVertex
 10
192.71280128940001
 20
27.03849870674
 30
0.0
  0
VERTEX
  5
5E7
100
AcDbEntity
  8
0
370
              25
  6
Continuous
 62
               7
100
AcDbVertex
100
AcDb2dVertex
 10
194.49502158829998
 20
29.112614365460004
 30
0.0
  0
VERTEX
  5
5E8
100
AcDbEntity
  8
0
370
              25
  6
Continuous
 62
               7
100
AcDbVertex
100
AcDb2dVertex
 10
195.94627999641997
 20
31.250252376180001
 30
0.0
  0
VERTEX
  5
5E9
100
AcDbEntity
  8
0
370
              25
  6
Continuous
 62
               7
100
AcDbVertex
100
AcDb2dVertex
 10
197.05763337187997
 20
33.438232556979997
 30
0.0
  0
VERTEX
  5
5EA
100
AcDbEntity
  8
0
370
              25
  6
Continuous
 62
               7
100
AcDbVertex
100
AcDb2dVertex
 10
197.82222460113999
 20
35.66306531075999
 30
0.0
  0
VERTEX
  5
5EB
100
AcDbEntity
  8
0
370
              25
  6
Continuous
 62
               7
100
AcDbVertex
100
AcDb2dVertex
 10
198.23534411271999
 20
37.911034698480009
 30
0.0
  0
VERTEX
  5
5EC
100
AcDbEntity
  8
0
370
              25
  6
Continuous
 62
               7
100
AcDbVertex
100
AcDb2dVertex
 10
198.31414782607999
 20
39.415693048059993
 30
0.0
  0
SEQEND
  5
5ED
100
AcDbEntity
  8
0
370
              25
  6
Continuous
 62
               7
  0
POLYLINE
  5
5EE
100
AcDbEntity
  8
0
370
              25
  6
Continuous
 62
               7
100
AcDb2dPolyline
 66
               1
 10
0.0
 20
0.0
 30
0.0
 75
               5
  0
VERTEX
  5
5EF
100
AcDbEntity
  8
0
370
              25
  6
Continuous
 62
               7
100
AcDbVertex
100
AcDb2dVertex
 10
161.76414713653998
 20
92.902290710159988
 30
0.0
  0
VERTEX
  5
5F0
100
AcDbEntity
  8
0
370
              25
  6
Continuous
 62
               7
100
AcDbVertex
100
AcDb2dVertex
 10
162.77583632727999
 20
92.718176811179987
 30
0.0
  0
VERTEX
  5
5F1
100
AcDbEntity
  8
0
370
              25
  6
Continuous
 62
               7
100
AcDbVertex
100
AcDb2dVertex
 10
163.85245621365999
 20
92.718177938939988
 30
0.0
  0
VERTEX
  5
5F2
100
AcDbEntity
  8
0
370
              25
  6
Continuous
 62
               7
100
AcDbVertex
100
AcDb2dVertex
 10
164.86414712906
 20
92.902290804139994
 30
0.0
  0
VERTEX
  5
5F3
100
AcDbEntity
  8
0
370
              25
  6
Continuous
 62
               7
100
AcDbVertex
100
AcDb2dVertex
 10
165.68888380063999
 20
93.24830832648
 30
0.0
  0
VERTEX
  5
5F4
100
AcDbEntity
  8
0
370
              25
  6
Continuous
 62
               7
100
AcDbVertex
100
AcDb2dVertex
 10
166.22719383653998
 20
93.714498491379985
 30
0.0
  0
VERTEX
  5
5F5
100
AcDbEntity
  8
0
370
              25
  6
Continuous
 62
               7
100
AcDbVertex
100
AcDb2dVertex
 10
166.41414634553999
 20
94.243836947559998
 30
0.0
  0
SEQEND
  5
5F6
100
AcDbEntity
  8
0
370
              25
  6
Continuous
 62
               7
  0
ARC
  5
5F7
100
AcDbEntity
  8
0
370
              25
  6
Continuous
 62
               7
100
AcDbCircle
 10
161.94858849994
 20
94.683124527199993
 30
0.0
 40
1.7903596584819605
100
AcDbArc
 50
194.36015928790019
 51
264.08694566060041
  0
LINE
  5
5F8
100
AcDbEntity
  8
0
370
              25
  6
Continuous
 62
               7
100
AcDbLine
 10
178.38336668950001
 20
57.018955121120001
 30
0.0
 11
172.82118882987999
 21
52.201967795500003
 31
0.0
  0
LINE
  5
5F9
100
AcDbEntity
  8
0
370
              25
  6
Continuous
 62
               7
100
AcDbLine
 10
171.08913703872
 20
52.916327565659998
 30
0.0
 11
169.70349622097999
 21
51.716327418039995
 31
0.0
  0
SPLINE
  5
5FA
100
AcDbEntity
  8
0
370
              25
  6
Continuous
 62
               7
100
AcDbSpline
210
0.0
220
0.0
230
1.0
 70
               8
 71
               2
 72
              17
 73
              14
 74
               0
 42
0.000001
 43
0.000001
 40
0.0
 40
0.0
 40
0.0
 40
1.0
 40
1.0
 40
2.0
 40
3.0
 40
4.0
 40
5.0
 40
6.0
 40
7.0
 40
8.0
 40
9.0
 40
9.0
 40
10.0
 40
10.0
 40
10.0
 10
167.55146424020964
 20
82.403446853705688
 30
0.0
 10
167.55158807666805
 20
82.401249121966586
 30
0.0
 10
167.55171191312647
 20
82.399051390227484
 30
0.0
 10
167.5716399280918
 20
82.192153955582896
 30
0.0
 10
167.51843283797604
 20
81.736476965514143
 30
0.0
 10
167.18787093601662
 20
81.32304796578066
 30
0.0
 10
166.53966739413917
 20
80.803216508635586
 30
0.0
 10
165.28890957623761
 20
80.343529628306982
 30
0.0
 10
164.20390125096026
 20
80.165593946839721
 30
0.0
 10
163.42018867380372
 20
80.136333738732716
 30
0.0
 10
162.70512980836961
 20
80.166321878303691
 30
0.0
 10
162.34644540744213
 20
80.189726023998304
 30
0.0
 10
162.34066252583222
 20
80.190086297738745
 30
0.0
 10
162.33487964422227
 20
80.190446571479185
 30
0.0
  0
SPLINE
  5
5FB
100
AcDbEntity
  8
0
370
              25
  6
Continuous
 62
               7
100
AcDbSpline
210
0.0
220
0.0
230
1.0
 70
               8
 71
               2
 72
              18
 73
              15
 74
               0
 42
0.000001
 43
0.000001
 40
0.0
 40
0.0
 40
0.0
 40
1.0
 40
1.0
 40
2.0
 40
3.0
 40
4.0
 40
5.0
 40
6.0
 40
7.0
 40
8.0
 40
9.0
 40
10.0
 40
10.0
 40
11.0
 40
11.0
 40
11.0
 10
162.33487964422227
 20
80.190446571479185
 30
0.0
 10
162.3300638164155
 20
80.191286162722179
 30
0.0
 10
162.32524798860874
 20
80.192125753965172
 30
0.0
 10
162.02561172828064
 20
80.243280295854788
 30
0.0
 10
161.43824234043245
 20
80.355666363062198
 30
0.0
 10
160.87533509887189
 20
80.504611802626982
 30
0.0
 10
160.28468851298456
 20
80.742591404968564
 30
0.0
 10
159.74011448370831
 20
81.070047962724217
 30
0.0
 10
159.32473521980933
 20
81.454352707247736
 30
0.0
 10
159.05769513269962
 20
81.869553943624609
 30
0.0
 10
159.04749522747883
 20
82.162014165296085
 30
0.0
 10
159.07818221596125
 20
82.345197162602702
 30
0.0
 10
159.09893410832635
 20
82.436978439943843
 30
0.0
 10
159.09925779383275
 20
82.438458400098853
 30
0.0
 10
159.09958147933912
 20
82.439938360253876
 30
0.0
  0
LINE
  5
5FC
100
AcDbEntity
  8
0
370
              25
  6
Continuous
 62
               7
100
AcDbLine
 10
162.38042708762001
 20
80.461024017939991
 30
0.0
 11
163.31790072955999
 21
80.407156045920004
 31
0.0
  0
ENDSEC
  0
SECTION
  2
OBJECTS
  0
DICTIONARY
  5
19
100
AcDbDictionary
280
               0
281
               1
  3
ACAD_GROUP
350
1A
  3
ACAD_MLINESTYLE
350
1B
  3
ACAD_LAYOUT
350
1E
  3
ACAD_PLOTSETTINGS
350
22
  3
ACAD_PLOTSTYLENAME
350
1F
  3
ACAD_WIPEOUT_VARS
350
23
  0
DICTIONARY
  5
1A
102
{ACAD_REACTORS
330
19
102
}
100
AcDbDictionary
280
               0
281
               1
  0
DICTIONARY
  5
1B
102
{ACAD_REACTORS
330
19
102
}
100
AcDbDictionary
280
               0
281
               1
  3
Standard
350
1C
  0
MLINESTYLE
  5
1C
102
{ACAD_REACTORS
330
1B
102
}
100
AcDbMlineStyle
  2
Standard
 70
               0
  3

 62
               0
 51
90.0
 52
90.0
 71
               2
 49
0.5
 62
             256
  6
ByLayer
 49
-0.5
 62
             256
  6
ByLayer
  0
ACDBDICTIONARYWDFLT
  5
1F
102
{ACAD_REACTORS
330
19
102
}
100
AcDbDictionary
281
               1
  3
Normal
350
1D
100
AcDbDictionaryWithDefault
340
1D
  0
ACDBPLACEHOLDER
  5
1D
102
{ACAD_REACTORS
330
1F
102
}
  0
LAYOUT
  5
20
102
{ACAD_REACTORS
330
1E
102
}
100
AcDbPlotSettings
  1

  2

  4

  6

 40
0.0
 41
0.0
 42
0.0
 43
0.0
 44
0.0
 45
0.0
 46
0.0
 47
0.0
 48
0.0
 49
0.0
140
0.0
141
0.0
142
1.0
143
1.0
 70
            1024
 72
               0
 73
               0
 74
               0
  7

 75
               0
147
1.0
148
0.0
149
0.0
100
AcDbLayout
  1
Model
 70
               0
 71
               0
 10
0.0
 20
0.0
 11
0.0
 21
0.0
 12
0.0
 22
0.0
 32
0.0
 14
0.0
 24
0.0
 34
0.0
 15
0.0
 25
0.0
 35
0.0
146
0.0
 13
0.0
 23
0.0
 33
0.0
 16
0.0
 26
0.0
 36
0.0
 17
0.0
 27
0.0
 37
0.0
 76
               0
330
A
331
0
345
0
346
0
  0
LAYOUT
  5
21
102
{ACAD_REACTORS
330
1E
102
}
100
AcDbPlotSettings
  1

  2

  4

  6

 40
0.0
 41
0.0
 42
0.0
 43
0.0
 44
0.0
 45
0.0
 46
0.0
 47
0.0
 48
0.0
 49
0.0
140
0.0
141
0.0
142
1.0
143
1.0
 70
               0
 72
               0
 73
               0
 74
               0
  7

 75
               0
147
1.0
148
0.0
149
0.0
100
AcDbLayout
  1
Layout1
 70
               0
 71
               0
 10
0.0
 20
0.0
 11
0.0
 21
0.0
 12
0.0
 22
0.0
 32
0.0
 14
0.0
 24
0.0
 34
0.0
 15
0.0
 25
0.0
 35
0.0
146
0.0
 13
0.0
 23
0.0
 33
0.0
 16
0.0
 26
0.0
 36
0.0
 17
0.0
 27
0.0
 37
0.0
 76
               0
330
B
331
0
345
0
346
0
  0
DICTIONARY
  5
1E
102
{ACAD_REACTORS
330
19
102
}
100
AcDbDictionary
280
               0
281
               1
  3
Layout1
350
21
  3
Model
350
20
  0
DICTIONARY
  5
22
102
{ACAD_REACTORS
330
19
102
}
100
AcDbDictionary
280
               0
281
               1
  0
WIPEOUTVARIABLES
  5
23
100
AcDbWipeoutVariables
 70
               1
  0
ENDSEC
  0
EOF
